Cifras e Tablaturas
Trevor Hall

Trevor Hall

Under Pressure

Cifras Cancelar Versão de Impressão
cifras

Trevor Hall - Under Pressure

fixar na tela  
Exibindo: vídeo-aula ver clipes redimensionar

Tom:

  
Option 1 

e|------------|-------------|--------------|--------------------------| 
B|---5---8----|----8---3----|----3---6-----|---6---1------------------| 
G|------------|-------------|--------------|--------------------------| 
D|------------|-------------|--------------|--------------------------| 
A|------------|-------------|--------------|--------------------------| 
E|---5---8----|----8---3----|----3---6-----|---6---1------------------| 



Option 2 (used in the album version for Chorus) 

e|-----------10---|------------5-----|------------8----|-----------3----------| 
B|---5---8--------|----8---3---------|---3---6---------|---6---1--------------| 
G|----------------|------------------|-----------------|----------------------| 
D|----------------|------------------|-----------------|----------------------| 
A|----------------|------------------|-----------------|----------------------| 
E|---5---8--------|----8---3---------|---3---6---------|---6---1--------------| 



Option 3   

e|-----------0---|------------0-----|------------0----|-----------0-----------| 
B|---5---8-------|-----8---3--------|----3---6--------|----6---1--------------| 
G|---------------|------------------|-----------------|-----------------------| 
D|---------------|------------------|-----------------|-----------------------| 
A|---------------|------------------|-----------------|-----------------------| 
E|---5---8-------|-----8---3--------|----3---6--------|----6---1--------------| 




Option 4 - This is how I play it. (I only do the 5xxx5x transition once at the start) 

e|--------------0-------0----|-------------0-------0----|-----------0--------0----|-----------0-------0----| 
B|---5---8--------8----------|------3--------3----------|----6---------6----------|----1--------1----------| 
G|---------------------------|--------------------------|-------------------------|------------------------| 
D|---------------------------|--------------------------|-------------------------|------------------------| 
A|---------------------------|--------------------------|-------------------------|------------------------| 
E|---5---8---8-------8-------|------3---3-------3-------|----6---6--------6-------|----1---1-------1-------| 
  

top 5 | trevor hall
top rock alternativo
Outras músicas do artista letras do(a) Trevor Hall
2.
Dust
Top cifras »Top artistas »
Petaxxon Comunicação Online
Cifras.com.br - Melhor e mais completo site de cifras e tablaturas do Brasil
Mais de 1 milhão de acordes de músicas cadastradas desde 2003
As informações contidas no nosso site são colaborações de seus usuários e podem conter erros, sendo assim, não nos responsabilizamos sobre nenhuma destas.
close
menos
mais
close
Cor dos acordes:

Cor da letra:

 

save
close
close
 
redimensionar