Cifras e Tablaturas
Triggerfinger

Triggerfinger

And There She Was Lying In The Wait

Cifras Cancelar Versão de Impressão Print

Triggerfinger - And There She Was Lying In The Wait

Tom: C

  			
Tuning: Drop C 

Main Riff            Verse Riff (a) 
d|------------------|--------------------------------------------------------| 
A|------------------|--------------------------------------------------------| 
F|------------------|--------------------------------------------------------| 
C|-------3~---3-----|-------------------------------5-5-3--------------------| 
G|---3h5--------5-3-|--5-5-5-5-5-5-5-5-5-5-5-5-5-5--5-5-5--------------------| 
C|---------------(0)|--0-0-0-0-0-0-0-0-0-0-0-0-0-0---------------------------| 
                         
     G#         Chorus Riff 
d|--------------|-----------------------------------------------------------| 
A|---6----------|-----------------------------------------------------------| 
F|---7----------|-----------------------------------------------------------| 
C|---8-(x32)----|---------3~-(3)--------------------------------------------| 
G|---x----------|-----3h5--------5-3---5-5-5-5-5-5-5-5-5-5-5-5-5------------| 
C|---8----------|-----------------(0)--0-0-0-0-0-0-0-0-0-0-0-0-0------------| 
                                                 
  Riff I            Solo I 
d|------------------||-----------------------------------||-----------------------| 
A|------------------||*---------------------------------*||-13-13-10--13-13brbr---| 
F|------------------||-12-12-10~-12-12-10~-12br-10----10-||-----------------------| 
C|------------------||-----------------------------12----||-----------------------| 
G|--3h5-3-----------||*---------------------------------*||-----------------------| 
C|--------6-5-3-0---||-----------------------------------||-----------------------| 

                             End Solo I| Verse Riff (b)| F octave 
d|-------------------------------------|------------|-------------------------| 
A|---13-13-10--13-13b-13b-13b-13b-13b--|------------|---(3)-------------------| 
F|-------------(tremolo picking)-------|------------|---(4)-------------------| 
C|-------------------------------------|-----5-5-3--|----5--------------------| 
G|-------------------------------------|-----5-5-5--|----x--------------------| 
C|-------------------------------------|------------|----5--------------------| 
                                                                         
   Verse V Riff                            Verse Riff (c) 
d|----------------------------------------|-------------------------------------| 
A|---6-------3----------------------------|-------------------------------------| 
F|---7-------4----------------------------|-------------------------------------| 
C|---8-(x16)-5-(x16)----------------------|-------------------------------------| 
G|---x-------x-------5-(x32)-3-5~--3-5~---|-----5-5-5-5-5-5-5-5-5-5-5-5-5-5-----| 
C|---8-------5-------0-------3-5~--3-5~---|-----0-0-0-0-0-0-0-0-0-0-0-0-0-0-----| 
                                     
 Riff II                    G#      F        Solo II (a)         (x2) 
d|----------------------|-------------------||------------------||--------------| 
A|------------------3---|---6-------3-------||*----------------*||--------------| 
F|------------------4---|---7-------4-------||------------------||--------------| 
C|----5p3-----------5---|---8-(x16)-5-(x16)-||-------3-3--------||--------3-5-3-| 
G|--------5-5p3-0---x---|---x-------x-------||*--3h5-----5p3p0-*||----3h5-------| 
C|----------------5-5---|---8-------5-------||--0---------------||--0-----------| 

                                      (x2) 
d|-----------------||------------------||--------------------------------| 
A|-----------------||*----------------*||--------------------------------| 
F|-----------------||------------------||--------------------5-----------| 
C|--5b-5-3-5-3-----||-------3-3--------||--------3-5---5/7-7---7\5-3-----| 
G|-------------3---||*--3h5-----5p3p0-*||----3h5---------------------5---| 
C|-----------------||--0---------------||--0-----------------------------| 

  Solo II (b)                 (x2) 
d||---------------------------||---------------------------------------------| 
A||*-------------------------*||---------------------------------------------| 
F||----------10-10------------||--------10----10-12b-12b-12b-12-10-----------| 
C||----10h12-------12p10------||--10h12----12----------------------12--------| 
G||*----------------------12-*||---------------------------------------------| 
C||--0------------------------||-0-------------------------------------------| 

                                                                   End Solo II 
d|---------------------------------------------------------------------------| 
A|-------------------------------------------------------------15-------15---| 
F|----------10-10------------------10h12b---------10-12-10-12b------12b------| 
C|----10h12-------12p10------10h12----------10h12----------------------------| 
G|----------------------12---------------------------------------------------| 
C|--0----------------------0--------------0----------------------------------| 

 Outro 
d|---------------------------------------------------------------------------| 
A|------------------6---------3----------6-----------------------------------| 
F|------------------7---------4----------7-----------------------------------| 
C|-6-6-7-8-8-8-8-/8-8-(1 bar)-5-(1 bar)-/8--(1 bar)----8-10-12-15-12---------| 
G|-x-x-x-x-x-x-x--x-x---------x----------x-------------x--x--x--x-12---------| 
C|-6-6-7-8-8-8-8-/8-8---------5---------/8-------------8-10-12-15-12---------| 

SONG STRUCTURE 
Intro: Main Riff (x4) 
Verse I+II: Verse Riff a (x8) 
Chorus I: G# (two bars), Chorus Riff (x2), G# (two bars), Riff I (x4) 
Solo I 
Verse III: Verse Riff b (x4) 
Verse IV: F octave (2 bars), Verse Riff c (x2) 
Chorus II: G# (two bars), Chorus Riff (x2), G# (two bars), Riff I (x4) 
Verse V: Verse V Riff 
Verse VI: Verse Riff a (x2), G# (2 bars), Verse Riff c (2x), Riff II 
Chorus III: F (two bars), Chorus Riff (x2), G# (two bars), Riff I (x8) 
Solo II: G# (1 bar), F (1 bar), Solo II a, G# (1 bar), F (1 bar), Solo II b 
Outro 

LYRICS 
(Intro) 
(Verse I) 
And there she was lying in wait 
Silently adrift 
A raving reckless renegade 
A prelude to a shift 

(Verse II) 
Nothing to lose and a vision to gain 
In pretty pain and ugly joy 
Under cover of the hard rain 
On the verge of being a toy 

(Chorus I) 
Some questions she asks herself at night 
Are best left until morning 
Some questions she asks herself at night 
They stick up without warning 

(Solo I) 
(Verse III) 
Working at the edge of spotlight 
In a colourful society of friends 
With no regard for stage fright 
The hard shoulder ends 

(Verse IV) 
She's willing to be fearless 
She's walking around without any clearance 
Expectation in the dimness 
Careful about her appearance 

(Chorus II) 
Some questions she asks herself at night 
Are best left until morning 
Some questions she asks herself at night 
They stick up without warning 

(Verse V) 
And there she was lying in wait 
Silently adrift 

(Verse VI) 
A raving reckless renegade 
A prelude to a shift 
Nothing to lose and a vision to gain 
In pretty pain and ugly joy 
Under cover of the hard rain 
On the verge of being a toy 

(Chorus III) 
Some questions she asks herself at night 
Are best left until morning 
Some questions she asks herself at night 
They stick up without warning 
Warning! 
(Solo II) 
(Outro) 


************************************ 

| /   slide up 
| h   hammer-on 
| p   pull-off 
| ~   vibrato 
| x   Mute note 
| b   Bend 
************************************ 
    	
fixar
fixar inscrever-se

enviado porenviado por: tamamoreira
cifra enviadaCorrigida por: sem correções
logo top cifrasComente
ico música do artistaMúsicas deste artista
ico curtiuCurtiu?
ico destaqueDestaque
Petaxxon Comunicação Online

Cifras.com.br - Melhor e mais completo site de cifras e tablaturas do Brasil Mais de 1 milhão de acordes de músicas cadastradas desde 2003
As informações contidas no nosso site são colaborações de seus usuários e podem conter erros, sendo assim, não nos responsabilizamos sobre nenhuma destas.

close
menos
mais
close
Cor dos acordes:

Cor da letra:

close
Alinhar acordes a direita Alinhar acordes a esquerda Alinhar acordes em baixo Alinhar acordes no topo
close
  Mostrar todos os acordes Esconder acordes muito fáceis Esconder acordes fáceis Esconder acordes intermediários
redimensionar
glossário