Cifras e Tablaturas
Triggerfinger

Triggerfinger

Black Panic

Cifras Cancelar Versão de Impressão Print

Triggerfinger - Black Panic

Tom: C

  			
Tuning: Drop C 
  Riff I     Riff II    Riff III 
d|----------|----------|-----------------------------------------------------| 
A|----------|----------|-----------------------------------------------------| 
F|----------|----------|-----------------------------------------------------| 
C|----------|----------|-----------------------------------------------------| 
G|-0-0-0-2--|-0-0-0-5--|--8-8-8-9-9-9-12-12-12-9-8-0-7-8-9-12-0-0-0-2--------| 
C|-0-0-0-2--|-0-0-0-5--|--8-8-8-9-9-9-12-12-12-9-8-0-7-8-9-12-0-0-0-2--------| 

Pre Chorus Riff  
d|---------------------------------------------------------------------------| 
A|---------------------------------------------------------------------------| 
F|---------------------------------------------------------------------------| 
C|---------------------------------------------------------------------------| 
G|-8-8-8-9-9-9-12-12-12-9-8-0-7-8-9-12-2-2-2-5-5-5-5-5-5-5-5-5-5-5-5-5-------| 
C|-8-8-8-9-9-9-12-12-12-9-8-0-7-8-9-12-2-2-2-5-5-5-5-5-5-5-5-5-5-5-5-5-------| 

  Chorus        (x5)              (x5)                       (x2) 
d|---------------------------------------------------------------------------| 
A|---------------3-----------------6-----------------------------------------| 
F|---------------4-----------------7--------------------------7--------------| 
C|-------------5-5---------------8-8------------------2-2-2-2-5--------------| 
G|--12-14-12-0-x-x----12-14-12-0-x-x-----12-14-12-0-0-2-2-2-2-5--------------| 
C|--12-14-12-0-5-5----12-14-12-0-8-8-----12-14-12-0-0-2-2-2-2-5--------------| 

                      (x4)                (x6) 
d|------------------------------------------0--------------------------------| 
A|------------------------------------------1--------------------------------| 
F|-------------------7-/10------------------0--------------------------------| 
C|-------------5-5-5-5-/8-------------------2--------------------------------| 
G|--12-14-12-0-5-5-5-5-/8-------12-14-12-0--3--------------------------------| 
C|--12-14-12-0-5-5-5-5-/8-------12-14-12-0-----------------------------------| 

  Interlude/Outro 
d|-----------|---------------------|--------------------|--------------------| 
A|-----------|---------------------|--------------------|-----start bending--| 
F|-----------|--------9-9-8-8-7-7--|----9-9-10-10-11-11-|-----on a low note--| 
C|--------8~-|--------x-x-x-x-x-x--|----x-x--x--x--x--x-|--- -and go higher--| 
G|--0-0-0----|--------7-7-6-6-5-5--|----7-7--8--8--9--9-|-----while picking--| 
C|--0-0-0----|---------------------|--------------------|------a new note----| 

SONG STRUCTURE 
Intro: Riff I (x5) 
Verse I: Riff I (x3), Riff II (x2), Riff I (x2), Riff III 
Verse II: Riff I (x3), Riff II (x2), Riff I(x2), Pre Chorus Riff 
Chorus 
Verse III: Riff I (x8), Riff II (x2), Riff I (x2), Pre Chorus Riff 
Chorus (x2) 
Interlude: Tabbing this out is bit pointless, so I wrote down the general idea: start  
with the fist part, then do some ‘octave chromatic scale’ stuff while you keep hitting that low C, 
then just start bending higher and higher, lots of feedback, smash your guitar...  
Chorus (x2) 
Outro: same idea as the Interlude 

LYRICS 
(Intro) 
(Verse I) 
Get in there with a chair and a whip and let it crack 
Oh loose behavior 
I gave you a fright and you gave it right back 
A panicking man both drowns himself and his savior. 

(Verse II) 
And there he stands, and there he stands 
Father, son and the Holy Ghost, 
Flanked by opinions, opinions and demands 
Who eats the fastest gets the most 

(Chorus) 
I ain’t no easy Eddie 
I can keep my right hand steady 
My aim is true 
I've got my eyes on you 
I've got my eyes on you 

(Verse III) 
Come out come out, 
From behind your strap-on 
But you're not ready for your close-up, yet 
There's no need, no need, to further improvise 
Just yank that victim blanket right over your head 

(Chorus x2) 
I ain't no easy Eddie 
I can keep my right hand steady 
My aim is true 
I've got my eyes on you 
I've got my eyes on you 

(Interlude) 
(Chorus x2) 
I ain't no easy Eddie 
I can keep my right hand steady 
My aim is true 
I've got my eyes on you 
I've got my eyes on you 

(Outro) 
I've got my eyes on you 
I've got my eyes on you 
I've got my eyes, my eyes, my eyes on you 
On you 

************************************ 

| /   slide up 
| \   slide down 
| ~   vibrato 
| x   Mute note 
| b   Bend 
************************************ 
    	
fixar
fixar inscrever-se

enviado porenviado por: robepoiel
cifra enviadaCorrigida por: sem correções
logo top cifrasComente
ico música do artistaMúsicas deste artista
ico curtiuCurtiu?
ico destaqueDestaque
Petaxxon Comunicação Online

Cifras.com.br - Melhor e mais completo site de cifras e tablaturas do Brasil Mais de 1 milhão de acordes de músicas cadastradas desde 2003
As informações contidas no nosso site são colaborações de seus usuários e podem conter erros, sendo assim, não nos responsabilizamos sobre nenhuma destas.

close
menos
mais
close
Cor dos acordes:

Cor da letra:

close
Alinhar acordes a direita Alinhar acordes a esquerda Alinhar acordes em baixo Alinhar acordes no topo
close
  Mostrar todos os acordes Esconder acordes muito fáceis Esconder acordes fáceis Esconder acordes intermediários
redimensionar
glossário