Cifras e Tablaturas
Tristam

Tristam

I Remember

Cifras Cancelar Versão de Impressão
cifras

Tristam - I Remember

fixar na tela  
Exibindo: vídeo-aula ver clipes redimensionar

Tom:

  

Main Melody (Lead/Guitar 1) 
e|----------------------------------------------------------|----------------------------------| 
B|-10----9--------------------------------------------------|---------------10--9/12--10-------| 
G|----------9-------9/11--11--11--11--11--14--11--11-11-11--|--9--11----11---------------------| 
D|--------------11------------------------------------------|----------------------------------| 
A|----------------------------------------------------------|----------------------------------| 
E|----------------------------------------------------------|----------------------------------| 

Main Melody (Rhythm/Guitar 2) 
e|---------------------------------------------------------------------------| 
B|---------------------------------------------------------------------------| 
G|---------------------------------------------------------------------------| 
D|---------------------------------------------------------------------------| 
A|-5----5--7---5-----7/8--------8----8--10--8/7--5---------------------------| 
E|-3----3--5---3-----5/6--------6----6--8---6/5--3---------------------------| 

************************************ 

| /  Slide up 

************************************ 
  

top 5 | tristam
top rock'n roll
Outras músicas do artista letras do(a) Tristam
Top cifras »Top artistas »
Petaxxon Comunicação Online
Cifras.com.br - Melhor e mais completo site de cifras e tablaturas do Brasil
Mais de 1 milhão de acordes de músicas cadastradas desde 2003
As informações contidas no nosso site são colaborações de seus usuários e podem conter erros, sendo assim, não nos responsabilizamos sobre nenhuma destas.
close
menos
mais
close
Cor dos acordes:

Cor da letra:

 

save
close
close
 
redimensionar