Cifras e Tablaturas
Trocadero

Trocadero

Bolt

Cifras Cancelar Versão de Impressão

Trocadero - Bolt

Tom: E

  			
Guitar 1 (E A D G B e) - 'Nico Audy-Rowland, Light Distortion' 

Intro  
(No guitar) 

{verse 1 Guitar comes in halfway through 
  Gtr 1 
    Q   Q   Q   Q        Q   Q   Q   E E      Q   Q   Q   E E      Q   Q   Q   Q 
e|--------------------|--------------------|--------------------|--------------------| 
B|--------------------|--------------------|--------------------|--------------------| 
G|--------------------|--------------------|--------------------|--------------------| 
D|------7-------7-----|------7-------7/9---|------9-------9\7---|------7-------7-----| 
A|------x-------x-----|--5---5---5---5-----|--7---7---7---7-----|------x-------x-----| 
E|--5---5---5---5-----|--------------------|--------------------|--5---5---5---5-----| 

    Q   Q   Q   Q        Q   Q   Q   E E      Q   Q   Q   E E      Q   Q   Q   E E 
e|--------------------|--------------------|--------------------|--------------------| 
B|--------------------|--------------------|--------------------|--------------------| 
G|--------------------|--------------------|--------------------|--------------------| 
D|------7-------7-----|------7-------7/9---|------9-------9\7---|------7-------7/9---| 
A|------x-------x-----|--5---5---5---5-----|--7---7---7---7-----|------x-------x-----| 
E|--5---5---5---5-----|--------------------|--------------------|--5---5---5---5-----| 

    Q   Q   Q   E E      Q   Q   Q   E E      Q   Q   Q   E E      Q   Q   Q   Q 
e|--------------------|--------------------|--------------------|--------------------| 
B|--------------------|--------------------|--------------------|--------------------| 
G|--------------------|--------------------|--------------------|--------------------| 
D|------9-------9\7---|------7-------7/9---|------9-------9\7---|------7-------7-----| 
A|--7---7---7---7-----|------x-------x-----|--7---7---7---7-----|------x-------x-----| 
E|--------------------|--5---5---5---5-----|--------------------|--5---5---5---5-----| 

Chorus 1 
  Gtr 1 
    Q   Q   Q   E E      Q   Q   Q   Q        Q   Q   Q   Q        Q   Q   Q   Q     (x4) 
e|--------------------|--------------------|--------------------|--------------------| 
B|o-------------------|--------------------|--------------------|-------------------o| 
G|--------------------|--------------------|--------------------|--------------------| 
D|------7-------7/9---|------9-------9-----|------4-------4-----|------6-------6-----| 
A|o-5---5---5---5-----|--7---7---7---7-----|------x-------x-----|------x-------x----o| 
E|--------------------|--------------------|--2---2---2---2-----|--4---4---4---4-----| 

    W                   +W                   +W                   +W 
e|--------------------|--------------------|--------------------|--------------------| 
B|--------------------|--------------------|--------------------|--------------------| 
G|--------------------|------------Bass riff plays------------|--------------------| 
D|--7-----------------|--------------------|--------------------|--------------------| 
A|--x-----------------|--------------------|--------------------|--------------------| 
E|--5-----------------|--------------------|--------------------|--------------------| 

verse 2 Guitar re-enters on 9th bar 
  Gtr 1 
    Q   Q   Q   E E      Q   Q   Q   E E      Q   Q   Q   E E      Q   Q   Q   Q 
e|--------------------|--------------------|--------------------|--------------------| 
B|--------------------|--------------------|--------------------|--------------------| 
G|--------------------|--------------------|--------------------|--------------------| 
D|------9-------9\7---|------7-------7/9---|------9-------9\7---|------7-------7-----| 
A|--7---7---7---7-----|------x-------x-----|--7---7---7---7-----|------x-------x-----| 
E|--------------------|--5---5---5---5-----|--------------------|--5---5---5---5-----| 

Chorus 2 
  Gtr 1 
    Q   Q   Q   E E      Q   Q   Q   Q        Q   Q   Q   Q        Q   Q   Q   Q     (x6) 
e|--------------------|--------------------|--------------------|--------------------| 
B|o-------------------|--------------------|--------------------|-------------------o| 
G|--------------------|--------------------|--------------------|--------------------| 
D|------7-------7/9---|------9-------9-----|------4-------4-----|------6-------6-----| 
A|o-5---5---5---5-----|--7---7---7---7-----|------x-------x-----|------x-------x----o| 
E|--------------------|--------------------|--2---2---2---2-----|--4---4---4---4-----| 

Interlude 
  Gtr 1 
    W                   +W                   +W                   +W 
e|--------------------|--------------------|--------------------|--------------------| 
B|--------------------|--------------------|--------------------|--------------------| 
G|--------------------|-------Guitar fades to feedback--------|--------------------| 
D|--7-----------------|--------------------|--------------------|--------------------| 
A|--x-----------------|--------------------|--------------------|--------------------| 
E|--5-----------------|--------------------|--------------------|--------------------| 

   (W)                  (W)                  (W)                  (W) 
e|--------------------|--------------------|--------------------|--------------------| 
B|--------------------|--------------------|--------------------|--------------------| 
G|--------------------|--------------------|--------------------|--------------------| 
D|--------------------|--------------------|--------------------|--------------------| 
A|--------------------|--------------------|--------------------|--------------------| 
E|--------------------|--------------------|--------------------|--------------------| 

Chorus 3 Guitar enters on 5th bar 
  Gtr 1 
    Q   Q   Q   E E      Q   Q   Q   Q        Q   Q   Q   Q        Q   Q   Q   Q     (x4) 
e|--------------------|--------------------|--------------------|--------------------| 
B|o-------------------|--------------------|--------------------|-------------------o| 
G|--------------------|--------------------|--------------------|--------------------| 
D|------7-------7/9---|------9-------9-----|------4-------4-----|------6-------6-----| 
A|o-5---5---5---5-----|--7---7---7---7-----|------x-------x-----|------x-------x----o| 
E|--------------------|--------------------|--2---2---2---2-----|--4---4---4---4-----| 

    - 
e|--------------------| 
B|--------------------| 
G|--------------------| 
D|--7-----------------| 
A|--x-----------------| 
E|--5-----------------| 

 
    	
fixar
fixar inscrever-se

enviado porenviado por: carlluz
cifra enviadaCorrigida por: sem correções
logo top cifrasComente
ico música do artistaMúsicas deste artista
ico curtiuCurtiu?
ico destaqueDestaque
Petaxxon Comunicação Online

Cifras.com.br - Melhor e mais completo site de cifras e tablaturas do Brasil Mais de 1 milhão de acordes de músicas cadastradas desde 2003
As informações contidas no nosso site são colaborações de seus usuários e podem conter erros, sendo assim, não nos responsabilizamos sobre nenhuma destas.

close
menos
mais
close
Cor dos acordes:

Cor da letra:

close
Alinhar acordes a direita Alinhar acordes a esquerda Alinhar acordes em baixo Alinhar acordes no topo
close
  Mostrar todos os acordes Esconder acordes muito fáceis Esconder acordes fáceis Esconder acordes intermediários
redimensionar
glossário