Cifras e Tablaturas
Turnover

Turnover

Breeze

Cifras Cancelar Versão de Impressão
cifras

Turnover - Breeze

fixar na tela  
Exibindo: vídeo-aula ver clipes redimensionar

Tom:

E

ver outros tons
  
Intro/Verse 
(Guitar 1) 
E|---------------------------------------------|---------------------------------------------| 
B|---------------------------------------------|---------------------------------------------| 
G|--10----8----------------8------------8------|--10----8----------------8------------8--10--| 
D|-----------10---8---8h10----10---8h10----10--|-----------10---8---8h10----10---10p8--------| 
A|---------------------------------------------|---------------------------------------------| 
E|---------------------------------------------|---------------------------------------------| 
 | 
E|---------------------------------------------|--------------------------------------------| 
B|---------------------------------------------|--------------------------------------------| 
G|--10----8----------------8------------8------|--10----8----------------8------------------| 
D|-----------10---8---8h10----10---8h10----10--|-----------10---8---8h10----10---10p8-8--6--| 
A|---------------------------------------------|--------------------------------------------| 
E|---------------------------------------------|--------------------------------------------| 

(Guitar 2) 
E|--------------------------------------------|---------------------------------------------| 
B|--11----9----------------9------------9-----|--11----9----------------9------------9------| 
G|-----------10---8---8h10----10---8h10----8--|-----------10---8---8h10----10---8h10----10--| 
D|--------------------------------------------|---------------------------------------------| 
A|--------------------------------------------|---------------------------------------------| 
E|--------------------------------------------|---------------------------------------------| 

Chorus 
(Chorus 1) 
E|----------------------------------|------------------------------| 
B|--9-------------------------------|--9---------------------------| 
G|-----8-10-----8-----8--10-8----8--|-----8-10-----8---------------| 
D|----------10-----6----------10----|----------10-----6--10--6--8--| 
A|----------------------------------|------------------------------| 
E|----------------------------------|------------------------------| 

(Guitar 2) 
E|-------------------------------------|-------------------------------------| 
B|--13-------------------13--------13--|--13-------------------13--------13--| 
G|------13-15-----13---------13--------|------13-15-----13---------13--------| 
D|------------15------13--------13-----|------------15------13--------13-----| 
A|-------------------------------------|-------------------------------------| 
E|-------------------------------------|-------------------------------------| 

Verse 
(Guitar 1) 
E|---------------------------------------------|---------------------------------------------| 
B|---------------------------------------------|---------------------------------------------| 
G|--10----8----------------8------------8------|--10----8----------------8------------8--10--| 
D|-----------10---8---8h10----10---8h10----10--|-----------10---8---8h10----10---10p8--------| 
A|---------------------------------------------|---------------------------------------------| 
E|---------------------------------------------|---------------------------------------------| 
 | 
E|---------------------------------------------|--------------------------------------------| 
B|---------------------------------------------|--------------------------------------------| 
G|--10----8----------------8------------8------|--10----8----------------8------------------| 
D|-----------10---8---8h10----10---8h10----10--|-----------10---8---8h10----10---10p8-8--6--| 
A|---------------------------------------------|--------------------------------------------| 
E|---------------------------------------------|--------------------------------------------| 

(Guitar 2) 
E|--------------------------------------------|---------------------------------------------| 
B|--11----9----------------9------------9-----|--11----9----------------9------------9------| 
G|-----------10---8---8h10----10---8h10----8--|-----------10---8---8h10----10---8h10----10--| 
D|--------------------------------------------|---------------------------------------------| 
A|--------------------------------------------|---------------------------------------------| 
E|--------------------------------------------|---------------------------------------------| 

Chorus 
(Guitar 1) 
E|----------------------------------|------------------------------| 
B|--9-------------------------------|--9---------------------------| 
G|-----8-10-----8-----8--10-8----8--|-----8-10-----8---------------| 
D|----------10-----6----------10----|----------10-----6--10--6--8--| 
A|----------------------------------|------------------------------| 
E|----------------------------------|------------------------------| 

(Guitar 2) 
E|-------------------------------------|-------------------------------------| 
B|--13-------------------13--------13--|--13-------------------13--------13--| 
G|------13-15-----13---------13--------|------13-15-----13---------13--------| 
D|------------15------13--------13-----|------------15------13--------13-----| 
A|-------------------------------------|-------------------------------------| 
E|-------------------------------------|-------------------------------------| 

Post-Chorus 
(Guitar 1) 
E|--------------------------| 
B|--4~----4~----4~----4~----| 
G|--5~----5~----5~----5~----| 
D|--3~----6~----6~----6~----| 
A|--------------------------| 
E|--------------------------| 

(Guitar 2) 
E|--11~----11~----13~----16~----| 
B|--13~----11~----13~----16~----| 
G|--13~----13~----13~----13~----| 
D|------------------------------| 
A|------------------------------| 
E|------------------------------| 

Bridge Pt. 1 
(Guitar 1) 
E|--------------------------| 
B|--------------------------| 
G|-----3-5---3-----3-5------| 
D|--6-----------3--------6--| 
A|--------------------------| 
E|--------------------------| 

(Guitar 2) 
E|--13--11-----------------11-------| 
B|---------13---11------11------13--| 
G|------------------13--------------| 
D|----------------------------------| 
A|----------------------------------| 
E|----------------------------------| 

Bridge Pt. 2 
(Guitar 1) 
E|---------------------------------|---------------------------------| 
B|------------------6--------------|------------------6--------------| 
G|--5-3---3-----3-------5---5---3--|--5-3---3-----3-------5---5-3----| 
D|------6---6-3---------------3----|------6---6-3-----------------6--| 
A|---------------------------------|---------------------------------| 
E|---------------------------------|---------------------------------| 

(Guitar 2) 
E|--------------11----------------------------|--------------11---------------------------| 
B|--------11-13------13---11---13---11--------|--------11-13------13---11---13---11-------| 
G|--10-13------------------------------13-10--|--10-13--------------------------------13--| 
D|--------------------------------------------|-------------------------------------------| 
A|--------------------------------------------|-------------------------------------------| 
E|--------------------------------------------|-------------------------------------------| 

(Guitar 3) 
E|-------------------------------|-------------------------------| 
B|-------------------------------|-------------------------------| 
G|-------5------5------5------5--|-------5------5------5------5--| 
D|--6--6---6--6---6--6---6--6----|--5--5---5--5---5--5---5--5----| 
A|-------------------------------|-------------------------------| 
E|-------------------------------|-------------------------------| 
   .  . . .  . . .  . . .  . .     .  . . .  . . .  . . .  . . 

Chorus 
(Guitar 1) 
E|----------------------------------|------------------------------| 
B|--9-------------------------------|--9---------------------------| 
G|-----8-10-----8-----8--10-8----8--|-----8-10-----8---------------| 
D|----------10-----6----------10----|----------10-----6--10--6--8--| 
A|----------------------------------|------------------------------| 
E|----------------------------------|------------------------------| 

(Guitar 2) 
E|-------------------------------------|-------------------------------------| 
B|--13-------------------13--------13--|--13-------------------13--------13--| 
G|------13-15-----13---------13--------|------13-15-----13---------13--------| 
D|------------15------13--------13-----|------------15------13--------13-----| 
A|-------------------------------------|-------------------------------------| 
E|-------------------------------------|-------------------------------------| 

Outro 
(Guitar 1) 
E|---------------------------------------------|---------------------------------------------| 
B|---------------------------------------------|---------------------------------------------| 
G|--10----8----------------8------------8------|--10----8----------------8------------8------| 
D|-----------10---8---8h10----10---8h10----10--|-----------10---8---8h10----10---8h10----10--| 
A|---------------------------------------------|---------------------------------------------| 
E|---------------------------------------------|---------------------------------------------| 

(Guitar 2) 
E|--------------------------------------------|---------------------------------------------| 
B|--11----9----------------9------------9-----|--11----9----------------9------------9------| 
G|-----------10---8---8h10----10---8h10----8--|-----------10---8---8h10----10---8h10----10--| 
D|--------------------------------------------|---------------------------------------------| 
A|--------------------------------------------|---------------------------------------------| 
E|--------------------------------------------|---------------------------------------------| 


************************* 

|  h    hammer on 
|  p    pull off 
|  ~    held note 
|  .    palm mute 

************************* 
  

top 5 | turnover
top diversos
Outras músicas do artista letras do(a) Turnover
Top cifras »Top artistas »
Petaxxon Comunicação Online
Cifras.com.br - Melhor e mais completo site de cifras e tablaturas do Brasil
Mais de 1 milhão de acordes de músicas cadastradas desde 2003
As informações contidas no nosso site são colaborações de seus usuários e podem conter erros, sendo assim, não nos responsabilizamos sobre nenhuma destas.
close
menos
mais
close
Cor dos acordes:

Cor da letra:

 

save
close
close
 
redimensionar