Cifras e Tablaturas
Turnover

Turnover

Butterfly Dream

Cifras Cancelar Versão de Impressão
cifras

Turnover - Butterfly Dream

fixar na tela  
Exibindo: vídeo-aula ver clipes redimensionar
  
Intro/Verse
 
(Guitar 1) 
E|-----------------------------|-----------------------------| 
B|-----------------------------|-----------------------------| 
G|-----------------------------|-------------------3---------| 
D|----------3--6--3---------3--|----------3--6--3-----6-3----| 
A|-------6-----------6--6-6----|-------6------------------6--| 
E|--4--4-----------------------|--4--4-----------------------| 
    .  . .  .  .  .  .  . . .    .  . .  .  .  .  .  . . . 

(Guitar 2) 
E|--------------------------------|--------------------------------| 
B|--------------------------------|--------------------------------| 
G|--10--8-------------------8-----|--10--8-------------------------| 
D|--------10--8------8--10----10--|--------10--8------8--10--8-----| 
A|---------------11---------------|---------------11-----------11--| 
E|--------------------------------|--------------------------------| 
    .   . .   .  .   .  .   . .     .   . .   .  .   .  .   . . 

Pre-Chorus 

(Guitar 1) 
E|---------8--11---------| 
B|--9----9-------9----9--| 
G|----8-------------8----| 
D|-----------------------| 
A|-----------------------| 
E|-----------------------| 

(Guitar 2) 
E|---------------11----------| 
B|---------9--------9-----9--| 
G|--10-----------------10----| 
D|-----11----11--------------| 
A|---------------------------| 
E|---------------------------| 

Chorus 

(Guitar 1) 
E|---------13-----------------------13-----|---------13------------------------------| 
B|------------13--13-------------------13--|------------13--13----------------13-----| 
G|--13---------------13-----13-------------|--13---------------13-----13---------13--| 
D|-----13----------------13----------------|-----13----------------13----------------| 
A|-----------------------------------------|-----------------------------------------| 
E|-----------------------------------------|-----------------------------------------| 

(Guitar 2) 
E|--------------------------------------------------|----------------------------------------------| 
B|--------------------------------------------------|----------------------------------------------| 
G|----------8h10--10p8-8---8----8h10--8-------------|----------8h10--10p8-----8--------------------| 
D|--8/10----10----10---10--10---10----10--10--8--6--|--8/10----10----10---10------8/10--8--8\6--6--| 
A|--------------------------------------------------|----------------------------------------------| 
E|--------------------------------------------------|----------------------------------------------| 
 | 
E|-----------------------------------------------------|-----------------------------------------------| 
B|-----------------------------------------------------|-----------------------------------------------| 
G|----------8h10--10p8----8-10-8---8h10--8-------------|----------8h10--10p8---------------------------| 
D|--8/10----10----10---10----------10----10--10--8--6--|--8/10----10----10---10-------8/10--8--8\6--6--| 
A|-----------------------------------------------------|-------------------------11--------------------| 
E|-----------------------------------------------------|-----------------------------------------------| 

Verse 
(Guitar 1) 
E|-----------------------------|-----------------------------| 
B|-----------------------------|-----------------------------| 
G|-----------------------------|-------------------3---------| 
D|----------3--6--3---------3--|----------3--6--3-----6-3----| 
A|-------6-----------6--6-6----|-------6------------------6--| 
E|--4--4-----------------------|--4--4-----------------------| 
    .  . .  .  .  .  .  . . .    .  . .  .  .  .  .  . . . 

(Guitar 2) 
E|--------------------------------|--------------------------------| 
B|--------------------------------|--------------------------------| 
G|--10--8-------------------8-----|--10--8-------------------------| 
D|--------10--8------8--10----10--|--------10--8------8--10--8-----| 
A|---------------11---------------|---------------11-----------11--| 
E|--------------------------------|--------------------------------| 
    .   . .   .  .   .  .   . .     .   . .   .  .   .  .   . . 

Pre-Chorus
 
(Guitar 1) 
E|---------8--11---------| 
B|--9----9-------9----9--| 
G|----8-------------8----| 
D|-----------------------| 
A|-----------------------| 
E|-----------------------| 

(Guitar 2) 
E|---------------11----------| 
B|---------9--------9-----9--| 
G|--10-----------------10----| 
D|-----11----11--------------| 
A|---------------------------| 
E|---------------------------| 

Chorus 

(Guitar 1) 
E|---------13-----------------------13-----|---------13------------------------------| 
B|------------13--13-------------------13--|------------13--13----------------13-----| 
G|--13---------------13-----13-------------|--13---------------13-----13---------13--| 
D|-----13----------------13----------------|-----13----------------13----------------| 
A|-----------------------------------------|-----------------------------------------| 
E|-----------------------------------------|-----------------------------------------| 

(Guitar 2) 
E|--------------------------------------------------|----------------------------------------------| 
B|--------------------------------------------------|----------------------------------------------| 
G|----------8h10--10p8-8---8----8h10--8-------------|----------8h10--10p8-----8--------------------| 
D|--8/10----10----10---10--10---10----10--10--8--6--|--8/10----10----10---10------8/10--8--8\6--6--| 
A|--------------------------------------------------|----------------------------------------------| 
E|--------------------------------------------------|----------------------------------------------| 
 | 
E|-----------------------------------------------------|-----------------------------------------------| 
B|-----------------------------------------------------|-----------------------------------------------| 
G|----------8h10--10p8----8-10-8---8h10--8-------------|----------8h10--10p8---------------------------| 
D|--8/10----10----10---10----------10----10--10--8--6--|--8/10----10----10---10-------8/10--8--8\6--6--| 
A|-----------------------------------------------------|-------------------------11--------------------| 
E|-----------------------------------------------------|-----------------------------------------------| 

Outro 
(Guitar 1)                                                                  Ending 
E|---------------------------------|---------------------------------------|------| 
B|------13-11----------------------|------13-11---------------11-13-11-----|------| 
G|--10---------10--13---10-----10--|-------------10--13---10-----------13--|--10--| 
D|--------------------------13-----|---------------------------------------|------| 
A|---------------------------------|---------------------------------------|------| 
E|---------------------------------|---------------------------------------|------| 
    .   .  .  .   .    .   .  .          .  .   .   .    .   .  .  .  .       . 

(Guitar 2) 
E|--------------------------------------|--------------------------------------------| 
B|--------------------------------------|--------------------------------------------| 
G|----------------------------8-8-8-----|--------------------------------------------| 
D|--6-6-8-8-8-6---8/10--10-10-------10--|--6-6-8-8-8-6---8/10--10-10-10brb-10-10-10--| 
A|--------------------------------------|--------------------------------------------| 
E|--------------------------------------|--------------------------------------------| 

 |                                                                               Ending 
E|--------------------------------------|--------------------------------------|--------| 
B|--------------------------------------|--------------------------------------|--------| 
G|----------------------------8-8-8-----|----------------8/10--10-10-8---8-----|---8~---| 
D|--6-6-8-8-8-6---8/10--10-10-------10--|--6-6-8-8-8-6---------------------10--|---10~--| 
A|--------------------------------------|--------------------------------------|--------| 
E|--------------------------------------|--------------------------------------|--------| 


************************* 

|  .    palm mute 
|  h    hammer on 
|  p    pull off 
|  /    slide up 
|  \    slide down 
|  ~    held note 

************************* 
  

top 5 | turnover
top diversos
Outras músicas do artista letras do(a) Turnover
Top cifras »Top artistas »
Petaxxon Comunicação Online
Cifras.com.br - Melhor e mais completo site de cifras e tablaturas do Brasil
Mais de 1 milhão de acordes de músicas cadastradas desde 2003
As informações contidas no nosso site são colaborações de seus usuários e podem conter erros, sendo assim, não nos responsabilizamos sobre nenhuma destas.
close
menos
mais
close
Cor dos acordes:

Cor da letra:

 

save
close
close
 
redimensionar