Cifras e Tablaturas
Turnover

Turnover

Change Irreversible

Cifras Cancelar Versão de Impressão
cifras

Turnover - Change Irreversible

fixar na tela  
Exibindo: vídeo-aula ver clipes redimensionar

Tom:

   
Capo 4

0:00 - 0:16 


 |  Guitar 1 
E|---------------------------------------------------------------------------------------------| 
B|--2--3-2------------------2--3-2-------------2--3-2------------------------------------------| 
G|----------------2-----2-----------2------------------------2----2/4--2-----0----------0------| 
D|----------4--4------4---4------------4---------------4--4-----4---------4------4--4-------4--| 
A|---------------------------------------------------------------------------------------------| 
E|---------------------------------------------------------------------------------------------| 



 |  Guitar 2 
E|------------------------------------------------------------------------------------| 
B|------------------------------------------------------------------------------------| 
G|----11----11---11---11---11---11---11---11---14---14---14---14---14---14---14---14--| 
D|--0----0----------0---------0---------0----0----0---------0---------0---------0-----| 
A|------------------------------------------------------------------------------------| 
E|------------------------------------------------------------------------------------| 
 | 
E|------------------------------------------------------------------------------------| 
B|------------------------------------------------------------------------------------| 
G|----11----11---11---11---11---11---11---11---14---14---14---14---14---14---14---14--| 
D|--0----0----------0---------0---------0----0----0---------0---------0---------0-----| 
A|------------------------------------------------------------------------------------| 
E|------------------------------------------------------------------------------------| 



0:16 - 0:48 


 |  Guitar 1 
E|--2--2--2-2-2--2-2--2-2--2--2--2-2-2--2-2--2-2--7--7--7-7-7--7-7--7-7--2--2--2-2-2--2-2--2-2--| 
B|--3--3--3-3-3--3-3--3-3--2--2--2-2-2--2-2--2-2--7--7--7-7-7--7-7--7-7--2--2--2-2-2--2-2--2-2--| 
G|--2--2--2-2-2--2-2--2-2--2--2--2-2-2--2-2--2-2--7--7--7-7-7--7-7--7-7--2--2--2-2-2--2-2--2-2--| 
D|--4--4--4-4-4--4-4--4-4--0--0--0-0-0--0-0--0-0--5--5--5-5-5--5-5--5-5--0--0--0-0-0--0-0--0-0--| 
A|----------------------------------------------------------------------------------------------| 
E|----------------------------------------------------------------------------------------------| 
 | 
E|--2--2--2-2-2--2-2--2-2--2--2--2-2-2--2-2--2-2--7--7--7-7-7--7-7--7-7--2--2--2-2-2--2-2--2-2--| 
B|--3--3--3-3-3--3-3--3-3--2--2--2-2-2--2-2--2-2--7--7--7-7-7--7-7--7-7--2--2--2-2-2--2-2--2-2--| 
G|--2--2--2-2-2--2-2--2-2--2--2--2-2-2--2-2--2-2--7--7--7-7-7--7-7--7-7--2--2--2-2-2--2-2--2-2--| 
D|--4--4--4-4-4--4-4--4-4--0--0--0-0-0--0-0--0-0--5--5--5-5-5--5-5--5-5--0--0--0-0-0--0-0--0-0--| 
A|----------------------------------------------------------------------------------------------| 
E|----------------------------------------------------------------------------------------------| 



 |  Guitar 2 
E|----------------------------5-------------------5-------------5-------------5---------| 
B|-------5/7------------5--7-----7-------5-7--7-5----7-5-7--7-5----7-5-7--7-5----7-5-7--| 
G|-------------------------------------7------------------------------------------------| 
D|--7-----------------------------------------------------------------------------------| 
A|--------------------------------------------------------------------------------------| 
E|--------------------------------------------------------------------------------------| 
 | 
E|----------------------------5-------------------5-------------5-------------5---------| 
B|-------5/7------------5--7-----7-------5-7--7-5----7-5-7--7-5----7-5-7--7-5----7-5-7--| 
G|-------------------------------------7------------------------------------------------| 
D|--7-----------------------------------------------------------------------------------| 
A|--------------------------------------------------------------------------------------| 
E|--------------------------------------------------------------------------------------| 



0:48 - 1:21 


 |  Guitar 1 
E|-----------------------------------| 
B|----------------------5-5-5-5-5-3--| 
G|--4-4-4-4-4-4-4-2-2-2--------------|  x 8 
D|-----------------------------------| 
A|-----------------------------------| 
E|-----------------------------------| 



 |  Guitar 2 
E|--7--5----------5-7--5-------------| 
B|--------7-7-5-7---------7-7-5-5----| 
G|--------------------------------7--|  x 8 
D|-----------------------------------| 
A|-----------------------------------| 
E|-----------------------------------| 



1:21 - 1:37 


 |  Guitar 1 
E|---------------------------------------------------------------------------------------------| 
B|--2--3-2------------------2--3-2-------------2--3-2------------------------------------------| 
G|----------------2-----2-----------2------------------------2----2/4--2-----0----------0------| 
D|----------4--4------4---4------------4---------------4--4-----4---------4------4--4-------4--| 
A|---------------------------------------------------------------------------------------------| 
E|---------------------------------------------------------------------------------------------| 



 |  Guitar 2 
E|------------------------------------------------------------------------------------| 
B|------------------------------------------------------------------------------------| 
G|----11----11---11---11---11---11---11---11---14---14---14---14---14---14---14---14--| 
D|--0----0----------0---------0---------0----0----0---------0---------0---------0-----| 
A|------------------------------------------------------------------------------------| 
E|------------------------------------------------------------------------------------| 
 | 
E|------------------------------------------------------------------------------------| 
B|------------------------------------------------------------------------------------| 
G|----11----11---11---11---11---11---11---11---14---14---14---14---14---14---14---14--| 
D|--0----0----------0---------0---------0----0----0---------0---------0---------0-----| 
A|------------------------------------------------------------------------------------| 
E|------------------------------------------------------------------------------------| 



1:37 - 2:10 


 |  Guitar 1 
E|--2--2--2-2-2--2-2--2-2--2--2--2-2-2--2-2--2-2--7--7--7-7-7--7-7--7-7--2--2--2-2-2--2-2--2-2--| 
B|--3--3--3-3-3--3-3--3-3--2--2--2-2-2--2-2--2-2--7--7--7-7-7--7-7--7-7--2--2--2-2-2--2-2--2-2--| 
G|--2--2--2-2-2--2-2--2-2--2--2--2-2-2--2-2--2-2--7--7--7-7-7--7-7--7-7--2--2--2-2-2--2-2--2-2--| 
D|--4--4--4-4-4--4-4--4-4--0--0--0-0-0--0-0--0-0--5--5--5-5-5--5-5--5-5--0--0--0-0-0--0-0--0-0--| 
A|----------------------------------------------------------------------------------------------| 
E|----------------------------------------------------------------------------------------------| 
 | 
E|--2--2--2-2-2--2-2--2-2--2--2--2-2-2--2-2--2-2--7--7--7-7-7--7-7--7-7--2--2--2-2-2--2-2--2-2--| 
B|--3--3--3-3-3--3-3--3-3--2--2--2-2-2--2-2--2-2--7--7--7-7-7--7-7--7-7--2--2--2-2-2--2-2--2-2--| 
G|--2--2--2-2-2--2-2--2-2--2--2--2-2-2--2-2--2-2--7--7--7-7-7--7-7--7-7--2--2--2-2-2--2-2--2-2--| 
D|--4--4--4-4-4--4-4--4-4--0--0--0-0-0--0-0--0-0--5--5--5-5-5--5-5--5-5--0--0--0-0-0--0-0--0-0--| 
A|----------------------------------------------------------------------------------------------| 
E|----------------------------------------------------------------------------------------------| 



 |  Guitar 2 
E|----------------------------5-------------------5-------------5-------------5---------| 
B|-------5/7------------5--7-----7-------5-7--7-5----7-5-7--7-5----7-5-7--7-5----7-5-7--| 
G|-------------------------------------7------------------------------------------------| 
D|--7-----------------------------------------------------------------------------------| 
A|--------------------------------------------------------------------------------------| 
E|--------------------------------------------------------------------------------------| 
 | 
E|----------------------------5-------------------5-------------5-------------5---------| 
B|-------5/7------------5--7-----7-------5-7--7-5----7-5-7--7-5----7-5-7--7-5----7-5-7--| 
G|-------------------------------------7------------------------------------------------| 
D|--7-----------------------------------------------------------------------------------| 
A|--------------------------------------------------------------------------------------| 
E|--------------------------------------------------------------------------------------| 



2:10 - 2:42 


 |  Guitar 1                                          
E|-----------------------------------||------------------------------| 
B|----------------------5-5-5-5-5-3--||------------------------2--3--| 
G|--4-4-4-4-4-4-4-2-2-2--------------||--4-4-4-4-4-4-4-2-2-2-2-------|   x 8 
D|-----------------------------------||------------------------------| 
A|-----------------------------------||------------------------------| 
E|-----------------------------------||----------(8TH TIME)----------| 



 |  Guitar 2 
E|--7--5----------5-7--5-------------| 
B|--------7-7-5-7---------7-7-5-5----| 
G|--------------------------------7--|  x 8 
D|-----------------------------------| 
A|-----------------------------------| 
E|-----------------------------------| 



2:42 - 3:15 


 |  Guitar 1 - DOESN'T PLAY AT FIRST 
E|------------------------------------------| 
B|--2--3-2----------------------------------| 
G|----------------2----2/4--2-----0---------| 
D|----------4--4-----4---------4------4--4--| 
A|------------------------------------------| 
E|------------------------------------------| 
 | 
E|---------------------------------------------------------------------------------------------| 
B|--2--3-2------------------2--3-2-------------2--3-2------------------------------------------| 
G|----------------2-----2-----------2------------------------2----2/4--2-----0----------0------| 
D|----------4--4------4---4------------4---------------4--4-----4---------4------4--4-------4--| 
A|---------------------------------------------------------------------------------------------| 
E|---------------------------------------------------------------------------------------------| 



 |  Guitar 2 
E|------------------------------------------------------------------------------------| 
B|------------------------------------------------------------------------------------| 
G|----11----11---11---11---11---11---11---11---14---14---14---14---14---14---14---14--| 
D|--0----0----------0---------0---------0----0----0---------0---------0---------0-----| 
A|------------------------------------------------------------------------------------| 
E|------------------------------------------------------------------------------------| 
 | 
E|------------------------------------------------------------------------------------| 
B|------------------------------------------------------------------------------------| 
G|----11----11---11---11---11---11---11---11---14---14---14---14---14---14---14---14--| 
D|--0----0----------0---------0---------0----0----0---------0---------0---------0-----| 
A|------------------------------------------------------------------------------------| 
E|------------------------------------------------------------------------------------| 
 | 
E|------------------------------------------------------------------------------------| 
B|------------------------------------------------------------------------------------| 
G|----11----11---11---11---11---11---11---11---14---14---14---14---14---14---14---14--| 
D|--0----0----------0---------0---------0----0----0---------0---------0---------0-----| 
A|------------------------------------------------------------------------------------| 
E|------------------------------------------------------------------------------------| 
 | 
E|------------------------------------------------------------------------------------| 
B|------------------------------------------------------------------------------------| 
G|----11----11---11---11---11---11---11---11---14---14---14---14---14---14---14---14--| 
D|--0----0----------0---------0---------0----0----0---------0---------0---------0-----| 
A|------------------------------------------------------------------------------------| 
E|------------------------------------------------------------------------------------| 



3:15 - 3:47 


 | Guitar 1 
E|--------------------0-----0-------------------------0-----0--------| 
B|--3-----3-----3---------------3---3-----3-----3---------------3----| 
G|----2-----2-----2-----2-----2---2---2-----2-----2-----2-----2---2--| 
D|------4-----4-----4-----4-------------0-----0-----0-----0----------| 
A|-------------------------------------------------------------------| 
E|-------------------------------------------------------------------| 
 | 
E|--------------------0-----0----------------------------------------| 
B|--3-----3-----3---------------3-----3-----3-----3------------------| 
G|----2-----2-----2-----2-----2---2-2-----2-----2--------------------| 
D|------5-----5-----5-----5-------------0-----0----------------------| 
A|-------------------------------------------------------------------| 
E|-------------------------------------------------------------------| 
 | 
E|--------------------0-----0-------------------------0-----0--------| 
B|--3-----3-----3---------------3---3-----3-----3---------------3----| 
G|----2-----2-----2-----2-----2---2---2-----2-----2-----2-----2---2--| 
D|------4-----4-----4-----4-------------0-----0-----0-----0----------| 
A|-------------------------------------------------------------------| 
E|-------------------------------------------------------------------| 
 | 
E|--------------------0-----0----------------------------------------| 
B|--3-----3-----3---------------3-----3-----3-----3-----------3---3--| 
G|----2-----2-----2-----2-----2---2-2-----2-----2---------------2----| 
D|------5-----5-----5-----5-------------0-----0----------------------| 
A|-------------------------------------------------------------------| 
E|-------------------------------------------------------------------| 


 |  Guitar 2 
E|--7--5----------5-7--5-------------| 
B|--------7-7-5-7---------7-7-5-5----| 
G|--------------------------------7--|  x 8 
D|-----------------------------------| 
A|-----------------------------------| 
E|-----------------------------------| 



3:47 - 5:08 


 |  Guitar 1 - FADES OUT TOWARDS END 
E|---------------------------------------------------------------------------------------------| 
B|--2--3-2------------------2--3-2-------------2--3-2------------------------------------------| 
G|----------------2-----2-----------2------------------------2----2/4--2-----0----------0------| 
D|----------4--4------4---4------------4---------------4--4-----4---------4------4--4-------4--| 
A|---------------------------------------------------------------------------------------------| 
E|---------------------------------------------------------------------------------------------| 
 | 
E|---------------------------------------------------------------------------------------------| 
B|--2--3-2------------------2--3-2-------------2--3-2------------------------------------------| 
G|----------------2-----2-----------2------------------------2----2/4--2-----0----------0------| 
D|----------4--4------4---4------------4---------------4--4-----4---------4------4--4-------4--| 
A|---------------------------------------------------------------------------------------------| 
E|---------------------------------------------------------------------------------------------| 
 | 
E|---------------------------------------------------------------------------------------------| 
B|--2--3-2------------------2--3-2-------------2--3-2------------------------------------------| 
G|----------------2-----2-----------2------------------------2----2/4--2-----0----------0------| 
D|----------4--4------4---4------------4---------------4--4-----4---------4------4--4-------4--| 
A|---------------------------------------------------------------------------------------------| 
E|---------------------------------------------------------------------------------------------| 
 | 
E|---------------------------------------------------------------------------------------------| 
B|--2--3-2------------------2--3-2-------------2--3-2------------------------------------------| 
G|----------------2-----2-----------2------------------------2----2/4--2-----0----------0------| 
D|----------4--4------4---4------------4---------------4--4-----4---------4------4--4-------4--| 
A|---------------------------------------------------------------------------------------------| 
E|---------------------------------------------------------------------------------------------| 



 |  Guitar 2 
E|------------------------------------------------------------------------------------| 
B|------------------------------------------------------------------------------------| 
G|----11----11---11---11---11---11---11---11---14---14---14---14---14---14---14---14--| 
D|--0----0----------0---------0---------0----0----0---------0---------0---------0-----| 
A|------------------------------------------------------------------------------------| 
E|------------------------------------------------------------------------------------| 
 | 
E|------------------------------------------------------------------------------------| 
B|------------------------------------------------------------------------------------| 
G|----11----11---11---11---11---11---11---11---14---14---14---14---14---14---14---14--| 
D|--0----0----------0---------0---------0----0----0---------0---------0---------0-----| 
A|------------------------------------------------------------------------------------| 
E|------------------------------------------------------------------------------------| 
 | 
E|------------------------------------------------------------------------------------| 
B|------------------------------------------------------------------------------------| 
G|----11----11---11---11---11---11---11---11---14---14---14---14---14---14---14---14--| 
D|--0----0----------0---------0---------0----0----0---------0---------0---------0-----| 
A|------------------------------------------------------------------------------------| 
E|------------------------------------------------------------------------------------| 
 | 
E|------------------------------------------------------------------------------------| 
B|------------------------------------------------------------------------------------| 
G|----11----11---11---11---11---11---11---11---14---14---14---14---14---14---14---14--| 
D|--0----0----------0---------0---------0----0----0---------0---------0---------0-----| 
A|------------------------------------------------------------------------------------| 
E|------------------------------------------------------------------------------------| 
 | 
E|------------------------------------------------------------------------------------| 
B|------------------------------------------------------------------------------------| 
G|----11----11---11---11---11---11---11---11---14---14---14---14---14---14---14---14--| 
D|--0----0----------0---------0---------0----0----0---------0---------0---------0-----| 
A|------------------------------------------------------------------------------------| 
E|------------------------------------------------------------------------------------| 
 | 
E|------------------------------------------------------------------------------------| 
B|------------------------------------------------------------------------------------| 
G|----11----11---11---11---11---11---11---11---14---14---14---14---14---14---14---14--| 
D|--0----0----------0---------0---------0----0----0---------0---------0---------0-----| 
A|------------------------------------------------------------------------------------| 
E|------------------------------------------------------------------------------------| 
 | 
E|------------------------------------------------------------------------------------| 
B|------------------------------------------------------------------------------------| 
G|----11----11---11---11---11---11---11---11---14---14---14---14---14---14---14---14--| 
D|--0----0----------0---------0---------0----0----0---------0---------0---------0-----| 
A|------------------------------------------------------------------------------------| 
E|------------------------------------------------------------------------------------| 
 | 
E|--------------------------------------------------------------------------------------| 
B|--------------------------------------------------------------------------------------| 
G|----11----11---11---11---11---11---11---11---14---14---14---14---14---14---14---11----| 
D|--0----0----------0---------0---------0----0----0---------0---------0---------0----0--| 
A|--------------------------------------------------------------------------------------| 
E|--------------------------------------------------------------------------------------| 



 |  Guitar 3 - HARMONIZES WITH Guitar 1 MIDWAY THROUGH, THEN FADES OUT WITH Guitar 1 
E|--9--10-9----------------------9--10-9--------9--10-9--------------------------------------------| 
B|-----------------10------10------------10-------------------10-----10/12-10-----8---------8------| 
G|-----------11-11------11----11------------11----------11-11-----11-----------11----11-11-----11--| 
D|-------------------------------------------------------------------------------------------------| 
A|-------------------------------------------------------------------------------------------------| 
E|-------------------------------------------------------------------------------------------------| 
 | 
E|--9--10-9----------------------9--10-9--------9--10-9--------------------------------------------| 
B|-----------------10------10------------10-------------------10-----10/12-10-----8---------8------| 
G|-----------11-11------11----11------------11----------11-11-----11-----------11----11-11-----11--| 
D|-------------------------------------------------------------------------------------------------| 
A|-------------------------------------------------------------------------------------------------| 
E|-------------------------------------------------------------------------------------------------| 



END 



*************************************** 

|  /    slide up 

*************************************** 
  

top 5 | turnover
top diversos
Outras músicas do artista letras do(a) Turnover
Top cifras »Top artistas »
Petaxxon Comunicação Online
Cifras.com.br - Melhor e mais completo site de cifras e tablaturas do Brasil
Mais de 1 milhão de acordes de músicas cadastradas desde 2003
As informações contidas no nosso site são colaborações de seus usuários e podem conter erros, sendo assim, não nos responsabilizamos sobre nenhuma destas.
close
menos
mais
close
Cor dos acordes:

Cor da letra:

 

save
close
close
 
redimensionar