Cifras e Tablaturas
Turnover

Turnover

Humming

Cifras Cancelar Versão de Impressão Print

Turnover - Humming

Tom:

  			Intro: 
e|----------------------------|--|--------------5--------------|--| 
B|-------1------------1-------|--|-------6---------------------|--| 
G|---0h2---2p0----0h2----2----|x2|---5h7----7------7---7--5--5-|x2| 
D|-3-----------3-----------3--|--|-8----------8------8---------|--| 
A|----------------------------|--|-----------------------------|--| 
E|----------------------------|--|-----------------------------|--| 


Verse: x4 
e|----------------------------|--|--------------5--------------|--| 
B|-------1------------1-------|--|-------6---------------------|--| 
G|---0h2---2p0----0h2----2----|x2|---5h7----7------7---7--5--5-|x2| 
D|-3-----------3-----------3--|--|-8----------8------8---------|--| 
A|----------------------------|--|-----------------------------|--| 
E|----------------------------|--|-----------------------------|--|----| 
 |                                                                     | 
e|--------------------------------8-8-8-10-8---------------------------| 
B|-------------------------------------------10-10-10-8-8-8-10-8-6-6-6-| 
G|---------------------------------------------------------------------| 
D|---------------------------------------------------------------------| 
A|---------------------------------------------------------------------| 
E|---------------------------------------------------------------------| 

Pre-Chorus 
e|-----------------5-------8------| 
B|-6-------8-------6-------6------| 
G|-5-------5-------5-------5------| 
D|-7-------7-------7-------7------| 
A|-5-------5-------5-------5------| 
E|--------------------------------| 


Chorus: x2 
e|------------------------------------------------------------------------------------| 
B|------------------------------------------------------------------------------------| 
G|-2-2-2-2-2-2-2-2-2-2-2-2-2-2-2-2--3---5-5---7-7---10-10----3---5-5---7-7---10-10----| 
D|-3-3-3-3-3-3-3-3-3-3-3-3-3-3-3-3--3---5-5---7-7---10-10----3---5-5---7-7---10-10----| 
A|-3-3-3-3-3-3-3-3-3-3-3-3-3-3-3-3--1---3-3---5-5---8--8-----1---3-3---5-5---8--8-----| 
E|-1-1-1-1-1-1-1-1-1-1-1-1-1-1-1-1----------------------------------------------------| 
 |                                                                                    | 
e|----1--------1-------1-------1-------1----1-----1-------1------1-----1-----1------1-| 
B|---1--1-----1--1----1--1----1--1---1----1-----1------1-------1-----1-----1------1---| 
G|--2----2---2----2--2----2--2----2---------------------------------------------------| 
D|-3------3---------3------3-------------------0------3------------------0------3-----| 
A|----------------------------------1----3-------------------1-----3------------------| 
E|------------------------------------------------------------------------------------| 


Post-Chorus: x2 
e|-10-10-8--8---------------------------------------| 
B|-------------10-10-8--8--8--8--8--10-8--6--6--6---| 
G|--------------------------------------------------| 
D|--------------------------------------------------| 
A|--------------------------------------------------| 
E|--------------------------------------------------| 
 |                                                  | 
e|--------------------------------------------------| 
B|--------------------------------------------------| 
G|-7--7--5--5---------------------------------------| 
D|-------------7--7--5--5--5--5--5--7--5--3--3--3---| 
A|--------------------------------------------------| 
E|--------------------------------------------------| 

Verse: x4 
e|----------------------------|--|--------------5--------------|--| 
B|-------1------------1-------|--|-------6---------------------|--| 
G|---0h2---2p0----0h2----2----|x2|---5h7----7------7---7--5--5-|x2| 
D|-3-----------3-----------3--|--|-8----------8------8---------|--| 
A|----------------------------|--|-----------------------------|--| 
E|----------------------------|--|-----------------------------|--|----| 
 |                                                                     | 
e|--------------------------------8-8-8-10-8---------------------------| 
B|-------------------------------------------10-10-10-8-8-8-10-8-6-6-6-| 
G|---------------------------------------------------------------------| 
D|---------------------------------------------------------------------| 
A|---------------------------------------------------------------------| 
E|---------------------------------------------------------------------| 

Pre-Chorus 
e|-----------------5-------5-----------------------5-------8------| 
B|---------8-------6-------6---------------8-------6-------6------| 
G|-5-------5-------5-------5-------5-------5-------5-------5------| 
D|-7-------7-------7-------7-------7-------7-------7-------7------| 
A|-5-------5-------5-------5-------5-------5-------5-------5------| 
E|----------------------------------------------------------------| 


Bridge: 
e|------------------------------------------------------------------| 
B|------------------------------------------------------------------| 
G|-2-2-2-2-2-2-2-2-3-3-3-3-3-3-3-3-5-5-5-5-5-5-5-5-2-2-2-2-2-2-2-2--| 
D|-3-3-3-3-3-3-3-3-3-3-3-3-3-3-3-3-5-5-5-5-5-5-5-5-3-3-3-3-3-3-3-3--| 
A|-3-3-3-3-3-3-3-3-1-1-1-1-1-1-1-1-3-3-3-3-3-3-3-3-3-3-3-3-3-3-3-3--| 
E|-1-1-1-1-1-1-1-1---------------------------------1-1-1-1-1-1-1-1--| 
 |                                                                  | 
e|---13-----13--------15------15------13-----13--------13------13---| 
B|----13------13-------13-------13-----13------13-------13-------13-| 
G|-14---14-14----14-14----14-14-----14---14-14----14-14----14-14----| 
D|------------------------------------------------------------------| 
A|------------------------------------------------------------------| 
E|------------------------------------------------------------------| 


Pre-Chorus 
e|-----------------5-------8------| 
B|-6-------8-------6-------6------| 
G|-5-------5-------5-------5------| 
D|-7-------7-------7-------7------| 
A|-5-------5-------5-------5------| 
E|--------------------------------| 

Chorus: x2 
e|------------------------------------------------------------------------------------| 
B|------------------------------------------------------------------------------------| 
G|-2-2-2-2-2-2-2-2-2-2-2-2-2-2-2-2--3---5-5---7-7---10-10----3---5-5---7-7---10-10----| 
D|-3-3-3-3-3-3-3-3-3-3-3-3-3-3-3-3--3---5-5---7-7---10-10----3---5-5---7-7---10-10----| 
A|-3-3-3-3-3-3-3-3-3-3-3-3-3-3-3-3--1---3-3---5-5---8--8-----1---3-3---5-5---8--8-----| 
E|-1-1-1-1-1-1-1-1-1-1-1-1-1-1-1-1----------------------------------------------------| 
 |                                                                                    | 
e|----1--------1-------1-------1-------1----1-----1-------1------1-----1-----1------1-| 
B|---1--1-----1--1----1--1----1--1---1----1-----1------1-------1-----1-----1------1---| 
G|--2----2---2----2--2----2--2----2---------------------------------------------------| 
D|-3------3---------3------3-------------------0------3------------------0------3-----| 
A|----------------------------------1----3-------------------1-----3------------------| 
E|------------------------------------------------------------------------------------| 

Outro: x2 
e|-10-10-8--8---------------------------------------| 
B|-------------10-10-8--8--8--8--8--10-8--6--6--6---| 
G|--------------------------------------------------| 
D|--------------------------------------------------| 
A|--------------------------------------------------| 
E|--------------------------------------------------| 
 |                                                  | 
e|--------------------------------------------------| 
B|--------------------------------------------------| 
G|-7--7--5--5---------------------------------------| 
D|-------------7--7--5--5--5--5--5--7--5--3--3--3---| 
A|--------------------------------------------------| 
E|--------------------------------------------------| 


************************************ 

| /   slide up 
| \   slide down 
| h   hammer-on 
| p   pull-off 
| ~   vibrato 
| +   harmonic 
| x   Mute note 
| b   Bend 
| pb  Pre-bend 
| br  Bend release 
| pbr Pre-bend release 
| brb Bend release bend 

************************************ 
    	
fixar
fixar inscrever-se

enviado porenviado por: paulantunes
cifra enviadaCorrigida por: sem correções
logo top cifrasComente
ico música do artistaMúsicas deste artista
ico curtiuCurtiu?
ico destaqueDestaque
Petaxxon Comunicação Online

Cifras.com.br - Melhor e mais completo site de cifras e tablaturas do Brasil Mais de 1 milhão de acordes de músicas cadastradas desde 2003
As informações contidas no nosso site são colaborações de seus usuários e podem conter erros, sendo assim, não nos responsabilizamos sobre nenhuma destas.

close
menos
mais
close
Cor dos acordes:

Cor da letra:

close
Alinhar acordes a direita Alinhar acordes a esquerda Alinhar acordes em baixo Alinhar acordes no topo
close
  Mostrar todos os acordes Esconder acordes muito fáceis Esconder acordes fáceis Esconder acordes intermediários
redimensionar
glossário