Cifras e Tablaturas
Turnover

Turnover

Pure Devotion

Cifras Cancelar Versão de Impressão
cifras

Turnover - Pure Devotion

fixar na tela  
Exibindo: vídeo-aula ver clipes redimensionar
  
Intro 
(Guitar 1) 
E|--13---8--8--| 
B|--13---8--8--| 
G|--13---8--8--| 
D|--11---6--6--| 
A|--11---6--6--| 
E|-------------| 

(Guitar 2) 
E|-------8---------|-------8---------| 
B|--9------9-------|--9------9----9--| 
G|----10-------10--|----10-----10----| 
D|-----------------|-----------------| 
A|-----------------|-----------------| 
E|-----------------|-----------------| 

Verse 
(Guitar 1) 
E|--13---8--8--| 
B|--13---8--8--| 
G|--13---8--8--| 
D|--11---6--6--| 
A|--11---6--6--| 
E|-------------| 

(Guitar 2) 
E|--13------------------------| 
B|-----16-13------------------| 
G|-----------15-13-------13~--| 
D|-----------------15----15~--| 
A|----------------------------| 
E|----------------------------| 

Pre-Chorus 
(Guitar 1) 
E|--6~------8--8~---8--| 
B|--6~------8--8~---8--| 
G|--6~------8--8~---8--| 
D|--8~------6--6~---6--| 
A|---------------------| 
E|---------------------| 

(Guitar 2) 
E|--13----13----------------------------------| 
B|-----16-----13----13-----------13-----------| 
G|---------------15----15--13-------15-13-----| 
D|----------------------------15----------15--| 
A|--------------------------------------------| 
E|--------------------------------------------| 
    .  .  .  .  .  .  .   .  .  .  .  .  . 

Chorus 
(Guitar 1) 
E|------------|---8--8~--8---|----6~--6---|---8--8~--8---| 
B|----8~--8---|---8--8~--8---|----6~--6---|---8--8~--8---| 
G|----8~--8---|---8--8~--8---|----6~--6---|---8--8~--8---| 
D|----6~--6---|--------------|------------|--------------| 
A|------------|--------------|------------|--------------| 
E|------------|--------------|------------|--------------| 

(Guitar 2) 
E|------------------------------------------------------| 
B|------------------------------------------------------| 
G|------3/5-----------3/5--8-5-------3/5-----------3/5--| 
D|--6-5------6--5--6-----------8--6-------6--5--6-------| 
A|------------------------------------------------------| 
E|------------------------------------------------------| 
 | 
E|-----------------------------------------------------------| 
B|-----------------------------------------------------------| 
G|------3/5-----------3/5--8-5---------------------3/5--3----| 
D|--6-5------6--5--6-----------8--6--3/5-----5--6---------6--| 
A|----------------------------------------6------------------| 
E|-----------------------------------------------------------| 

Post-Chorus 
(Guitar 1) 
E|--13---8--8--| 
B|--13---8--8--| 
G|--13---8--8--| 
D|--11---6--6--| 
A|--11---6--6--| 
E|-------------| 

(Guitar 2) 
E|-------8---------|-------8---------| 
B|--9------9-------|--9------9----9--| 
G|----10-------10--|----10-----10----| 
D|-----------------|-----------------| 
A|-----------------|-----------------| 
E|-----------------|-----------------| 

Verse 
(Guitar 1) 
E|--13---8--8--| 
B|--13---8--8--| 
G|--13---8--8--| 
D|--11---6--6--| 
A|--11---6--6--| 
E|-------------| 

(Guitar 2) 
E|--13------------------------| 
B|-----16-13------------------| 
G|-----------15-13-------13~--| 
D|-----------------15----15~--| 
A|----------------------------| 
E|----------------------------| 

Pre-Chorus 
(Guitar 1) 
E|--6~------8--8~---8--| 
B|--6~------8--8~---8--| 
G|--6~------8--8~---8--| 
D|--8~------6--6~---6--| 
A|---------------------| 
E|---------------------| 

(Guitar 2) 
E|--13----13----------------------------------| 
B|-----16-----13----13-----------13-----------| 
G|---------------15----15--13-------15-13-----| 
D|----------------------------15----------15--| 
A|--------------------------------------------| 
E|--------------------------------------------| 
    .  .  .  .  .  .  .   .  .  .  .  .  . 

Chorus 
(Guitar 1) 
E|------------|---8--8~--8---|----6~--6---|---8--8~--8---| 
B|----8~--8---|---8--8~--8---|----6~--6---|---8--8~--8---| 
G|----8~--8---|---8--8~--8---|----6~--6---|---8--8~--8---| 
D|----6~--6---|--------------|------------|--------------| 
A|------------|--------------|------------|--------------| 
E|------------|--------------|------------|--------------| 

(Guitar 2) 
E|------------------------------------------------------| 
B|------------------------------------------------------| 
G|------3/5-----------3/5--8-5-------3/5-----------3/5--| 
D|--6-5------6--5--6-----------8--6-------6--5--6-------| 
A|------------------------------------------------------| 
E|------------------------------------------------------| 
 | 
E|------------------------------------------------------| 
B|------------------------------------------------------| 
G|------3/5-----------3/5--8-5---------------------3/5--| 
D|--6-5------6--5--6-----------8--6--3/5-----5--6-------| 
A|----------------------------------------6-------------| 
E|------------------------------------------------------| 
 | 
E|-------------------------------------------------------| 
B|-------------------------------------------------------| 
G|------3/5--/8-10-------3/5--8-5-------3/5-----------3--| 
D|--6-5------------5--6-----------8--6-------6--5--6-----| 
A|-------------------------------------------------------| 
E|-------------------------------------------------------| 
 | 
E|--------------------------------------------------------------| 
B|--------------------------------------------------------------| 
G|------3/5--/8-10-------3/5--8-5---------------------3/5--3----| 
D|--6-5------------5--6-----------8--6--3/5-----5--6---------6--| 
A|-------------------------------------------6------------------| 
E|--------------------------------------------------------------| 

Outro 
(Guitar 1)     Ending 
E|--13---8--8--|---8~--| 
B|--13---8--8--|---8~--| 
G|--13---8--8--|---8~--| 
D|--11---6--6--|---6~--| 
A|--11---6--6--|---6~--| 
E|-------------|-------| 

(Guitar 2) 
E|-------8---------|-------8---------| 
B|--9------9-------|--9------9----9--| 
G|----10-------10--|----10-----10----| 
D|-----------------|-----------------| 
A|-----------------|-----------------| 
E|-----------------|-----------------| 


************************* 

|  .    palm mute 
|  ~    sustain 
|  /    slide up 

************************* 
  

top 5 | turnover
top diversos
Outras músicas do artista letras do(a) Turnover
Top cifras »Top artistas »
Petaxxon Comunicação Online
Cifras.com.br - Melhor e mais completo site de cifras e tablaturas do Brasil
Mais de 1 milhão de acordes de músicas cadastradas desde 2003
As informações contidas no nosso site são colaborações de seus usuários e podem conter erros, sendo assim, não nos responsabilizamos sobre nenhuma destas.
close
menos
mais
close
Cor dos acordes:

Cor da letra:

 

save
close
close
 
redimensionar