Cifras e Tablaturas
Twrp

Twrp

Food Bar

Cifras Cancelar Versão de Impressão

Twrp - Food Bar

Tom:

  			
Intro 
e|---------------------------------------------------------------------------| 
B|---------------------------------------------------------------------------| 
G|--------5h7p5-------5--7--------5h7p5--7-----5-----------------------------| 
D|-7-5-7--------7-5-7------7-5-7-----------5-----5---------------------------| 
A|---------------------------------------------------------------------------| 
E|---------------------------------------------------------------------------| 
  this repeats a few times ^ 
e|---------------------------------------------------------------------------| 
B|---------------------------------------------------------------------------| 
G|---------------------------------------------------------------------------| 
D|---------------------------------------------------------------------------| 
A|---------------------------------------------------------------------------| 
E|---------------------------------------------------------------------------| 

Verse 
e|---------------------------------------------------------------------------| 
B|---------------------------------------------------------------------------| 
G|-------------------------------------------------------5---7---------------| 
D|-7---5---4---5---7---5---4---5---7---5---4---5----7----5---7---------------| 
A|-7---5---4---5---7---5---4---5---7---5---4---5----7----3---5---------------| 
E|-5---3---2---3---5---3---2---3---5---3---2---3----5------------------------| 
   (below im showing how to goes back into the main riff) 
e|---------------------------------------------------------------------------| 
B|---------------------------------------------------------------------------| 
G|---5-4---------------------------------------------------------------------| 
D|-------7-5-7---------------------------------------------------------------| 
A|---------------------------------------------------------------------------| 
E|---------------------------------------------------------------------------| 
   
Chorus 
e|-----------------------------------------------------------------------------------| 
B|-----------------------------------------------------------------------------------| 
G|-----------------------------------------------------------------------------------| 
D|---5--5--5-5--5--5-----------5--5--5-5--5--5--------------7--7--7-7--7--7----------| 
A|---3--3--3-3--3--3------0-3--3--3--3-3--3--3---------3-5--5--5--5-5--5--5------5-8-| 
E|--------------------1-3--------------------------3-5-----------------------5-7-----| 
  the ending part can also be this, listen to figure out when it plays v 
e|---------------------------------|------------------------------------------| 
B|---------------------------------|------------------------------------------| 
G|---------------------10b-8-------|----10b-8--8------------------------------| 
D|---10-10-1010-10-10--------10-10-|---------10-------------------------------| 
A|---8--8--8-8--8--8---------------|------------------------------------------| 
E|---------------------------------|------------------------------------------| 

Outro 
e|----------------------------------------------------------------------------------------------------| 
B|----------------------------------------------------------------------------------------------------| 
G|--------5h7p5-------5--7--------5h7p5--7-----5-----------5h7p5--------5--7--------5h7p5--7-----5----| 
D|-7-5-7--------7-5-7------7-5-7-----------5-----5---7-5-7--------7-5-7------7-5-7-----------5-----5--| 
A|----------------------------------------------------------------------------------------------------| 
E|----------------------------------------------------------------------------------------------------| 

e|---------------------------------------------------------------------8-12t17-8-12t17-8-12t17-8-12t17| 
B|----------------------------------------------------------------------------------------------------| 
G|--------5h7p5--------------------5h7p5--7-----5-----------5h7p5-------------------------------------| 
D|-7-5-7--------7-5-7--\----7-5-7-----------5-----5---7-5-7-------7-5-7-------------------------------| 
A|---------------------\------------------------------------------------------------------------------| 
E|----------------------------------------------------------------------------------------------------| 

e|----------------------------------------------------------------------------------------------------| 
B|----------------------------------------------------------------------------------------------------| 
G|--------5h7p5--7-----5----------------------------------------------------------5---5---------------| 
D|-7-5-7----------5-----5---7---5---4---5---7---5---4---5---7---5---4---5----7----5---7---------------| 
A|--------------------------7---5---4---5---7---5---4---5---7---5---4---5----7----3---5-------5-3-----| 
E|--------------------------5---3---2---3---5---3---2---3---5---3---2---3----5--------------------5---| 



************************************ 
| h   Hammer-on 
| p   Pull-off 
| t   Tapping 
| b   Bend 
| \   Pick slide 

************************************ 
    	
fixar
fixar inscrever-se

enviado porenviado por: aleffederico
cifra enviadaCorrigida por: sem correções
logo top cifrasComente
ico música do artistaMúsicas deste artista
ico curtiuCurtiu?
ico destaqueDestaque
Petaxxon Comunicação Online

Cifras.com.br - Melhor e mais completo site de cifras e tablaturas do Brasil Mais de 1 milhão de acordes de músicas cadastradas desde 2003
As informações contidas no nosso site são colaborações de seus usuários e podem conter erros, sendo assim, não nos responsabilizamos sobre nenhuma destas.

close
menos
mais
close
Cor dos acordes:

Cor da letra:

close
Alinhar acordes a direita Alinhar acordes a esquerda Alinhar acordes em baixo Alinhar acordes no topo
close
  Mostrar todos os acordes Esconder acordes muito fáceis Esconder acordes fáceis Esconder acordes intermediários
redimensionar
glossário