Cifras e Tablaturas
Twrp

Twrp

Interstellar Strut

Cifras Cancelar Versão de Impressão
cifras

Twrp - Interstellar Strut

fixar na tela  
Exibindo: vídeo-aula ver clipes redimensionar

Tom:

  
Intro (0:00) 

  Gtr 1 
    < 
e|----------------------------------------------------|----------------------------------------------------| 
B|----------------------------------------------------|----------------------------------------------------| 
G|----------------------------------------------------|----------------------------------------------------| 
D|----------------------------------------------------|----------------------------------------------------| 
A|-(4L)-----------------------------------------------|--(4L)----------------------------------------------| 
E|-(2L)-----------------------------------------------|--(2L)----------------------------------------------| 

e|----------------------------------------------------|----------------------------------------------------| 
B|----------------------------------------------------|----------------------------------------------------| 
G|----------------------------------------------------|----------------------------------------------------| 
D|----------------------------------------------------|----------------------------------------------------| 
A|-(4L)-----------------------------------------------|--(4L)--------(4L)--------------------(4)----4L-----| 
E|-(2L)-----------------------------------------------|--(2L)--------(2L)--------------------(2)----2L-----| 

e|----------------------------------------------------|----------------------------------------------------| 
B|----------------------------------------------------|----------------------------------------------------| 
G|----------------------------------------------------|----------------------------------------------------| 
D|----------------------------------------------------|----------------------------------------------------| 
A|-(4L)-----------------------------------------------|--(4L)----------------------------------------------| 
E|-(2L)-----------------------------------------------|--(2L)----------------------------------------------| 
   
e|----------------------------------------------------|----------------------------------------------------| 
B|----------------------------------------------------|----------------------------------------------------| 
G|----------------------------------------------------|----------------------------------------------------| 
D|----------------------------------------------------|---------------------------------------------4L-----| 
A|-(4L)-----------------------------------------------|--(4L)--------(4L)--------------------(4)----4L-----| 
E|-(2L)-----------------------------------------------|--(2L)--------(2L)--------------------(2)----2L-----| 


  Gtr 1 
e|----------------------------------------------------|----------------------------------------------------| 
B|----------------------------------------------------|----------------------------------------------------| 
G|----------------------------------------------------|----------------------------------------------------| 
D|--4L------------------------------------------------|--4L------------------------------------------------| 
A|--4L------------------------------------------------|--4L------------------------------------------------| 
E|--2L------------------------------------------------|--2L------------------------------------------------| 
 | 
 | Gtr 2 
e|----------------------------------------------------|----------------------------------------------------| 
B|----------------------------------------------------|----------------------------------------------------| 
G|----------------------------------------------------|--------------------------------4h-2-----4h-2-------| 
D|----------------------------------------------------|----------------------------------------------------| 
A|----------------------------------------------------|----------------------------------------------------| 
E|----------------------------------------------------|----------------------------------------------------| 
    
   Gtr 1 
e|----------------------------------------------------|----------------------------------------------------| 
B|----------------------------------------------------|----------------------------------------------------| 
G|----------------------------------------------------|----------------------------------------------------| 
D|--4L------------------------------------------------|--4-------------------------------------------------| 
A|--4L------------------------------------------------|--4-------------------------------------------------| 
E|--2L------------------------------------------------|--2-------------------------------------------------| 
 | 
 | Gtr 2 
e|----------------------------------------------------|----------------------------------------------------|| 
B|----------------------------------------------------|----------------------------------------------------|| 
G|--4h-2-----4h-2-----4h-2-----4L----------4L---------|--4-------------------------------------------------|| 
D|----------------------------------------------------|----------------------------------------------------|| 
A|----------------------------------------------------|----------------------------------------------------|| 
E|----------------------------------------------------|----------------------------------------------------|| 


 Verse (0:24) 

   Gtr 1 
e|----------------------------------------------------|----------------------------------------------------| 
B|----------------------------------------------------|----------------------------------------------------| 
G|----------------------------------------------------|----------------------------------------------------| 
D|--------------------------6-----6-------------------|--------4-----4-------------------------------------| 
A|--4-----4-----------------4-----4-------------------|--------2-----2-----2-----------2-----3-----4-------| 
E|--2-----2-------------------------------------------|--------------------0-----------0-----1-----2-------| 
 | 
 | Gtr 2 
 | 
e|----------------------------------------------------|----------------------------------------------------| 
B|----------------------------------------------------|----------------------------------------------------| 
G|----------------------------------------------------|----------------------------------------------------| 
D|----------------------------------------------------|----------------------------------------------------| 
A|----------------------------------------------------|----------------------------------------------------| 
E|----------------------------------------------------|----------------------------------------------------| 


   Gtr 1 
e|----------------------------------------------------|----------------------------------------------------| 
B|----------------------------------------------------|----------------------------------------------------| 
G|----------------------------------------------------|----------------------------------------------------| 
D|----------------------------------------------------|----------------------------------------------------| 
A|----------------------------------------------------|----------------------------------------------------| 
E|----------------------------------------------------|----------------------------------------------------| 
 | 
 | Gtr 2 
e|--------------------------9s------------------------|--------------9s------------------------------------| 
B|--------------12-12-10----------10L---10------------|--12-12-10----------10------------------------------| 
G|----------------------------------------------------|----------------------------------------------------| 
D|----------------------------------------------------|----------------------------------------------------| 
A|----------------------------------------------------|----------------------------------------------------| 
E|----------------------------------------------------|----------------------------------------------------| 
       
   Gtr 1 
e|----------------------------------------------------|----------------------------------------------------| 
B|----------------------------------------------------|----------------------------------------------------| 
G|----------------------------------------------------|----------------------------------------------------| 
D|--------------------------6-----6-------------------|--------4-----4-------------------------------------| 
A|--4-----4-----------------4-----4-------------------|--------2-----2-----2-----------2-----3-----4-------| 
E|--2-----2-------------------------------------------|--------------------0-----------0-----1-----2-------| 
 | 
 | Gtr 2 
e|----------------------------------------------------|----------------------------------------------------| 
B|----------------------------------------------------|----------------------------------------------------| 
G|----------------------------------------------------|----------------------------------------------------| 
D|----------------------------------------------------|----------------------------------------------------| 
A|----------------------------------------------------|----------------------------------------------------| 
E|----------------------------------------------------|----------------------------------------------------| 

   Gtr 1 
e|--------------------------5s------------------------|--------------5s------------------------------------| 
B|--------------7--7--7-----------7L----7-------------|--7--7--7-----------7L----7-------------------------| 
G|----------------------------------------------------|----------------------------------------------------| 
D|----------------------------------------------------|----------------------------------------------------| 
A|----------------------------------------------------|----------------------------------------------------| 
E|----------------------------------------------------|----------------------------------------------------| 
 | 
 | Gtr 2 
e|--------------------------9s------------------------|--------------9s------------------------------------| 
B|--------------12-12-10----------10L---10------------|--12-12-10----------10------------------------------| 
G|----------------------------------------------------|----------------------------------------------------| 
D|----------------------------------------------------|----------------------------------------------------| 
A|----------------------------------------------------|----------------------------------------------------| 
E|----------------------------------------------------|----------------------------------------------------| 

   Gtr 1                                                   
e|----------------------------------------------------|| 
B|----------------------------------------------------|| 
G|----------------------------------------------------|| 
D|--------------------------------------x--x----------|| 
A|--------------------------------------x--x----------|| 
E|--------------------------------------x--x----------|| 
 | 
 | Gtr 2 
e|----------------------------------------------------|| 
B|----------------------------------------------------|| 
G|----------------------------------------------------|| 
D|----------------------------------------------------|| 
A|----------------------------------------------------|| 
E|----------------------------------------------------|| 


Chorus (0:42) 

   Gtr 1 
e|----------------------------------------------------|----------------------------------------------------| 
B|----------------------------------------------------|----------------------------------------------------| 
G|----------------------------------------------------|----------------------------------------------------| 
D|--------------------------2-------------------------|--------------2-------------------------------------| 
A|--4--------------------2----------------------------|-----------2--------------------4-----------4-------| 
E|--2--------2--5--2--5-----------2--------------2----|--5--2--5-----------2-----------2-----------2-------| 

                                                      
e|----------------------------------------------------|----------------------------------------------------| 
B|----------------------------------------------------|----------------------------------------------------| 
G|----------------------------------------------------|----------------------------------------------------| 
D|--------------------------2-------------------------|--------------2-------------------------------------| 
A|-----------------------2----------------------------|-----------2--------------------4-----------4-------| 
E|-----------2--5--2--5-----------2--------------2----|--5--2--5-----------2-----------2-----------2-------| 

                                                      
Chorus Solo (0:50) 

   Gtr 1 
e|----------------------------------------------------|----------------------------------------------------| 
B|----------------------------------------------------|----------------------------------------------------| 
G|----------------------------------------------------|----------------------------------------------------| 
D|--------------------------2-------------------------|--------------2-------------------------------------| 
A|--4--------------------2----------------------------|-----------2--------------------4-----------4-------| 
E|--2--------2--5--2--5-----------2--------------2----|--5--2--5-----------2-----------2-----------2-------| 
 |   
 | Gtr 2 
e|----------------------------------------------------|----------------------------------------------------| 
B|----------------------------------------------------|--------------------------------------12------------| 
G|--13-------13-------13-------13-------13-------13---|--------13-------13-------13-------13----13-11------| 
D|-----13-14----13-14----13-14----13-14----13-14------|--13-14----13-14----13-14----13-14-------------14---| 
A|----------------------------------------------------|----------------------------------------------------| 
E|----------------------------------------------------|----------------------------------------------------| 
 | 
 | Gtr 3                                                      
e|----------------------------------------------------|--------------------------------------4-------------| 
B|--5-----4--5-----4--5-----4--5-----4--5-----4--5----|-----4--5-----4--5-----4--5-----4--5-----5--4-------| 
G|-----4--------4--------4--------4--------4----------|--4--------4--------4--------4-----------------6----| 
D|----------------------------------------------------|----------------------------------------------------| 
A|----------------------------------------------------|----------------------------------------------------| 
E|----------------------------------------------------|----------------------------------------------------| 

   Gtr 1 
e|----------------------------------------------------|----------------------------------------------------|| 
B|----------------------------------------------------|----------------------------------------------------|| 
G|----------------------------------------------------|----------------------------------------------------|| 
D|--------------------------2-------------------------|--------------2-------------------------------------|| 
A|-----------------------2----------------------------|-----------2--------------------4-----------4-------|| 
E|-----------2--5--2--5-----------2--------------2----|--5--2--5-----------2-----------2-----------2-------|| 
 | 
 | Gtr 2 
e|-----12-------12-------12----14-------14-------14---|-----16-------16-------16-19------------------------|| 
B|--14-------14-------14----16-------16-------16------|--17-------17-------17------------------------------|| 
G|--------14-------14-------------16-------16---------|--------18-------18---------------------------------|| 
D|----------------------------------------------------|----------------------------------------------------|| 
A|----------------------------------------------------|----------------------------------------------------|| 
E|----------------------------------------------------|----------------------------------------------------|| 
 | 
 | Gtr 3 
e|-----9--------9--------9-----11-------11-------11---|-----12-------12-------12-14------------------------|| 
B|--10-------10-------10----12-------12-------12------|--14-------14-------14------------------------------|| 
G|--------11-------11-------------11-------11---------|--------14-------14---------------------------------|| 
D|----------------------------------------------------|----------------------------------------------------|| 
A|----------------------------------------------------|----------------------------------------------------|| 
E|----------------------------------------------------|----------------------------------------------------|| 


verse 2 (0:58) 

   Gtr 1 
e|----------------------------------------------------|----------------------------------------------------| 
B|----------------------------------------------------|----------------------------------------------------| 
G|----------------------------------------------------|----------------------------------------------------| 
D|--------------------------6-----6-------------------|--------4-----4-------------------------------------| 
A|--4-----4-----------------4-----4-------------------|--------2-----2-----2-----------2-----3-----4-------| 
E|--2-----2-------------------------------------------|--------------------0-----------0-----1-----2-------| 
 | 
 | Gtr 2 
e|----------------------------------------------------|----------------------------------------------------| 
B|----------------------------------------------------|----------------------------------------------------| 
G|----------------------------------------------------|----------------------------------------------------| 
D|----------------------------------------------------|----------------------------------------------------| 
A|----------------------------------------------------|----------------------------------------------------| 
E|----------------------------------------------------|----------------------------------------------------| 
                                                          
   Gtr 1                                                      
e|----------------------------------------------------|----------------------------------------------------| 
B|----------------------------------------------------|----------------------------------------------------| 
G|----------------------------------------------------|----------------------------------------------------| 
D|--------------------------6-----6-----------4-------|--4-------------------------------------------------|x2 
A|--------4-----4-----------4-----4-----------2-------|--2-----------2----(2L)--(2L)-----------------------| 
E|--------2-----2-------------------------------------|--------------0----(0L)--(0L)-----------------------| 
 | 
 | Gtr 2 
e|----------------------------------------------------|----------------------------------------------------| 
B|--------7-----7-----------5-----5-----------4-------|--4-----------4----(5L)--(5L)-----------------------| 
G|--------6-----6-----------6-----6-----------4-------|--4-----------4----(4L)--(4L)-----------------------| 
D|--------7-----7-----------6-----6-----------4-------|--4-----------4----(6L)--(6L)-----------------------|x2 
A|----------------------------------------------------|----------------------------------------------------| 
E|----------------------------------------------------|----------------------------------------------------| 

                                                           
   Gtr 1 
e|----------------------------------------------------|----------------------------------------------------| 
B|----------------------------------------------------|----------------------------------------------------| 
G|----------------------------------------------------|----------------------------------------------------| 
D|--------------------------6-----6-------------------|--------4-----4-------------------------------------| 
A|--4-----4-----------------4-----4-------------------|--------2-----2-----2-----------2-----3-----4-------| 
E|--2-----2-------------------------------------------|--------------------0-----------0-----1-----2-------| 
 | 
 | Gtr 2 
e|----------------------------------------------------|----------------------------------------------------| 
B|--------------10------------------------------------|----------------------------------------------------| 
G|--------------------------11------------------------|--------------9-------------------------------------| 
D|--------------------------------------11------------|--9-----11----------------------7-------------------| 
A|----------------------------------------------------|--------------------9-----------------7-------------| 
E|----------------------------------------------------|--------------------------------------------9L------| 
                                                          
   Gtr 1                                                     
e|----------------------------------------------------|----------------------------------------------------| 
B|----------------------------------------------------|----------------------------------------------------| 
G|----------------------------------------------------|----------------------------------------------------| 
D|--------------------------6-----6-----------4-------|--4-------------------------------------------------| 
A|--------4-----4-----------4-----4-----------2-------|--2-----------2----(2L)--(2L)-----------------------| 
E|--------2-----2-------------------------------------|--------------0----(0L)--(0L)-----------------------| 
 | 
 | Gtr 2 
e|----------------------------------------------------|----------------------------------------------------| 
B|--------7-----7-----------5-----5-----------4-------|--4-----------4----(5L)--(5L)-----------------------| 
G|--------6-----6-----------6-----6-----------4-------|--4-----------4----(4L)--(4L)-----------------------| 
D|--------7-----7-----------6-----6-----------4-------|--4-----------4----(6L)--(6L)-----------------------| 
A|----------------------------------------------------|----------------------------------------------------| 
E|----------------------------------------------------|----------------------------------------------------| 


   Gtr 1 
e|----------------------------------------------------|----------------------------------------------------| 
B|----------------------------------------------------|----------------------------------------------------| 
G|----------------------------------------------------|----------------------------------------------------| 
D|--------------------------6-----6-------------------|--------4-----4-----------------4-----6-----7-------| 
A|--4-----4-----------------4-----4-------------------|--------2-----2-----2-----------2-----4-----5-------| 
E|--2-----2-------------------------------------------|--------------------0-------------------------------| 
 |                                                          
 | Gtr 2 
e|----------------------------------------------------|----------------------------------------------------| 
B|----------------------------------------------------|----------------------------------------------------| 
G|----------------------------------------------------|----------------------------------------------------| 
D|----------------------------------------------------|----------------------------------------------------| 
A|----------------------------------------------------|----------------------------------------------------| 
E|----------------------------------------------------|----------------------------------------------------| 


   Gtr 1 
e|----------------------------------------------------|----------------------------------------------------|| 
B|----------------------------------------------------|----------------------------------------------------|| 
G|----------------------------------------------------|----------------------------------------------------|| 
D|-(7L)--------------------(7)----7-----6-----4L------|-(4)------------------------------------------------|| 
A|-(5L)--------------------(5)----5-----4-----2L------|-(2)------------------------------------------------|| 
E|----------------------------------------------------|----------------------------------------------------|| 
 | 
 | Gtr 2 
e|----------------------------------------------------|----------------------------------------------------|| 
B|----------------------------------------------------|----------------------------------------------------|| 
G|----------------------------------------------------|----------------------------------------------------|| 
D|----------------------------------------------------|----------------------------------------------------|| 
A|----------------------------------------------------|----------------------------------------------------|| 
E|----------------------------------------------------|----------------------------------------------------|| 
          

Bridge (1:29) 

   Gtr 1 
e|----------------------------------------------------|----------------------------------------------------| 
B|----------------------------------------------------|----------------------------------------------------| 
G|----------------------------------------------------|----------------------------------------------------| 
D|--7-----------------------------------7-----6-------|--4-----------------------------------4-----5-------| 
A|--5-----xM-xM-xM-xM-xM-xM-xM-xM-xM-xM-5-----4-------|--2-----xM-xM-xM-xM-xM-xM-xM-xM-xM-xM-2-----3-------| 
E|----------------------------------------------------|----------------------------------------------------| 
 | 
 | Gtr 2 
e|--10----------------------------------10------------|--7-----------------------------------7-------------| 
B|--------------10------------------------------------|--------------7-------------------------------------| 
G|--------------------------11------------------------|--------------------------7-------------------------| 
D|----------------------------------------------------|----------------------------------------------------| 
A|----------------------------------------------------|----------------------------------------------------| 
E|----------------------------------------------------|----------------------------------------------------| 

   Gtr 1                                               
e|----------------------------------------------------|----------------------------------------------------| 
B|----------------------------------------------------|----------------------------------------------------| 
G|----------------------------------------------------|----------------------------------------------------| 
D|--6-----------------------------------6-----7-------|--6-----------------------------------6-----8-------| 
A|--4-----xM-xM-xM-xM-xM-xM-xM-xM-xM-xM-4-----5-------|--4-----x--x--x--x--x--x--x--x--x--x--4-----6-------| 
E|----------------------------------------------------|----------------------------------------------------| 
 | 
 | Gtr 2                                                    
e|--9-----------------------------------9L------------|-(9)----------------------------------9-------------| 
B|--------------9-------------------------------------|--------------9-------------------------------------| 
G|--------------------------10------------------------|--------------------------10------------------------| 
D|----------------------------------------------------|----------------------------------------------------| 
A|----------------------------------------------------|----------------------------------------------------| 
E|----------------------------------------------------|----------------------------------------------------| 

   Gtr 1                                          
e|----------------------------------------------------|----------------------------------------------------| 
B|----------------------------------------------------|----------------------------------------------------| 
G|--------5--3--5-----------5--3--5-----------8-------|--------3--2--3-------------------------------------| 
D|--------3--1--3-----------3--1--3-----------6-------|--4-----1--0--1-------------------------------------| 
A|--3-----------------3-----------------3-------------|--2-----------------xM-xM-xM-xM-xM-xM-xM-xM-xM-xM---| 
E|--1-----------------1-----------------1-------------|----------------------------------------------------| 
 | 
 | Gtr 2 
e|--8-----------------------------------8-------------|--7-----------------------------------7-------------| 
B|--------------9-------------------------------------|--------------7-------------------------------------| 
G|--------------------------10------------------------|--------------------------8-------------------------| 
D|----------------------------------------------------|----------------------------------------------------| 
A|----------------------------------------------------|----------------------------------------------------| 
E|----------------------------------------------------|----------------------------------------------------| 
                                                     
   Gtr 1 
e|----------------------------------------------------|----------------------------------------------------| 
B|----------------------------------------------------|----------------------------------------------------| 
G|----------------------------------------------------|----------------------------------------------------| 
D|--8-------------------------------------------------|----------------------------------------------------| 
A|--6-----xM-xM-xM-xM-xM-xM-xM-xM-xM-xM-xM-xM-xM-xM---|--7-------------------------------------------------| 
E|----------------------------------------------------|--5-----xM-xM-xM-xM-xM-xM-xM-xM-xM-xM-xM-xM-xM-xM---| 
 | 
 | Gtr 2 
e|--6-----------------------------------6-------------|--5-----------------------------------5-------------| 
B|--------------7-------------------------------------|--------------5-------------------------------------| 
G|--------------------------8-------------------------|--------------------------6-------------------------| 
D|----------------------------------------------------|----------------------------------------------------| 
A|----------------------------------------------------|----------------------------------------------------| 
E|----------------------------------------------------|----------------------------------------------------| 

   Gtr 1                                                   
e|----------------------------------------------------|----------------------------------------------------| 
B|----------------------------------------------------|----------------------------------------------------| 
G|----------------------------------------------------|----------------------------------------------------| 
D|--7-----------------------------------7-----6-------|--4-----------------------------------4-----5-------| 
A|--5-----xM-xM-xM-xM-xM-xM-xM-xM-xM-xM-5-----4-------|--2-----xM-xM-xM-xM-xM-xM-xM-xM-xM-xM-2-----3-------| 
E|----------------------------------------------------|----------------------------------------------------| 
 | 
 | Gtr 2 
e|--10----------------------------------10------------|--7-----------------------------------7-------------| 
B|--------------10------------------------------------|--------------7-------------------------------------| 
G|--------------------------11------------------------|--------------------------7-------------------------| 
D|----------------------------------------------------|----------------------------------------------------| 
A|----------------------------------------------------|----------------------------------------------------| 
E|----------------------------------------------------|----------------------------------------------------| 

   Gtr 1                                                   
e|----------------------------------------------------|----------------------------------------------------| 
B|----------------------------------------------------|----------------------------------------------------| 
G|----------------------------------------------------|----------------------------------------------------| 
D|--6-----------------------------------6-----7-------|--6-----------------------------------6-----8-------| 
A|--4-----xM-xM-xM-xM-xM-xM-xM-xM-xM-xM-4-----5-------|--4-----x--x--x--x--x--x--x--x--x--x--4-----6-------| 
E|----------------------------------------------------|----------------------------------------------------| 
 | 
 | Gtr 2                                                    
e|--9-----------------------------------9L------------|-(9)----------------------------------9-------------| 
B|--------------9-------------------------------------|--------------9-------------------------------------| 
G|--------------------------10------------------------|--------------------------10------------------------| 
D|----------------------------------------------------|----------------------------------------------------| 
A|----------------------------------------------------|----------------------------------------------------| 
E|----------------------------------------------------|----------------------------------------------------| 

   Gtr 1                                                   
e|----------------------------------------------------|----------------------------------------------------| 
B|----------------------------------------------------|----------------------------------------------------| 
G|--------5--3--5-----------5--3--5-----------8-------|--------3--2--3-------------------------------------| 
D|--------3--1--3-----------3--1--3-----------6-------|--4-----1--0--1-------------------------------------| 
A|--3-----------------3-----------------3-------------|--2-----------------xM-xM-xM-xM-xM-xM-xM-xM-xM-xM---| 
E|--1-----------------1-----------------1-------------|----------------------------------------------------| 
 | 
 | Gtr 2 
e|--8-----------------------------------8-------------|--7-----------------------------------7-------------| 
B|--------------9-------------------------------------|--------------7-------------------------------------| 
G|--------------------------10------------------------|--------------------------8-------------------------| 
D|----------------------------------------------------|----------------------------------------------------| 
A|----------------------------------------------------|----------------------------------------------------| 
E|----------------------------------------------------|----------------------------------------------------| 
  
   Gtr 1                                                 
e|----------------------------------------------------|----------------------------------------------------| 
B|----------------------------------------------------|----------------------------------------------------| 
G|----------------------------------------------------|----------------------------------------------------| 
D|--8-------------------------------------------------|----------------------------------------------------| 
A|--6-----xM-xM-xM-xM-xM-xM-xM-xM-xM-xM-xM-xM-xM-xM---|--7-------------------------------------------------| 
E|----------------------------------------------------|--5-----xM-xM-xM-xM-xM-xM-xM-xM-xM-xM-xM-xM-xM-xM---| 
 | 
 | Gtr 2 
e|--6-----------------------------------6-------------|--5-----------------------------------5-------------| 
B|--------------7-------------------------------------|--------------5-------------------------------------| 
G|--------------------------8-------------------------|--------------------------6-------------------------| 
D|----------------------------------------------------|----------------------------------------------------| 
A|----------------------------------------------------|----------------------------------------------------| 
E|----------------------------------------------------|----------------------------------------------------|  

   Gtr 1                                                   
e|----------------------------------------------------|----------------------------------------------------| 
B|----------------------------------------------------|----------------------------------------------------| 
G|----------------------------------------------------|----------------------------------------------------| 
D|--8-------------------------------------------------|--7-----------7--7--7--7--7-----7-----------7-------| 
A|--6-----x--x--x--x--x--x--x--x--x--x--x--x--x--x----|--7-----------7--7--7--7--7-----7-----------7-------| 
E|----------------------------------------------------|--5-----------5--5--5--5--5-----5-----------5-------| 
 | 
 | Gtr 2 
e|--6-----------------------------------6-------------|----------------------------------------------------|| 
B|--------------7-------------------------------------|----------------------------------------------------|| 
G|--------------------------8-------------------------|----------------------------------------------------|| 
D|----------------------------------------------------|----------------------------------------------------|| 
A|----------------------------------------------------|----------------------------------------------------|| 
E|----------------------------------------------------|----------------------------------------------------||  


Chorus (2:05) 

   Gtr 1 
e|----------------------------------------------------|----------------------------------------------------| 
B|----------------------------------------------------|----------------------------------------------------| 
G|----------------------------------------------------|----------------------------------------------------| 
D|--------------------------2-------------------------|--------------2-------------------------------------| 
A|--4--------------------2----------------------------|-----------2--------------------4-----------4-------| 
E|--2--------2--5--2--5-----------2--------------2----|--5--2--5-----------2-----------2-----------2-------| 

                                                      
e|----------------------------------------------------|----------------------------------------------------| 
B|----------------------------------------------------|----------------------------------------------------| 
G|----------------------------------------------------|----------------------------------------------------| 
D|--------------------------2-------------------------|--------------2-------------------------------------| 
A|-----------------------2----------------------------|-----------2--------------------4-----------4-------| 
E|-----------2--5--2--5-----------2--------------2----|--5--2--5-----------2-----------2-----------2-------| 

                                                      
Chorus Solo (2:13) 

  Gtr 1 
e|----------------------------------------------------|----------------------------------------------------| 
B|----------------------------------------------------|----------------------------------------------------| 
G|----------------------------------------------------|----------------------------------------------------| 
D|--------------------------2-------------------------|--------------2-------------------------------------| 
A|--4--------------------2----------------------------|-----------2--------------------4-----------4-------| 
E|--2--------2--5--2--5-----------2--------------2----|--5--2--5-----------2-----------2-----------2-------| 
 |   
 | Gtr 2 
e|----------------------------------------------------|----------------------------------------------------| 
B|----------------------------------------------------|--------------------------------------12------------| 
G|--13-------13-------13-------13-------13-------13---|--------13-------13-------13-------13----13-11------| 
D|-----13-14----13-14----13-14----13-14----13-14------|--13-14----13-14----13-14----13-14-------------14---| 
A|----------------------------------------------------|----------------------------------------------------| 
E|----------------------------------------------------|----------------------------------------------------| 
 | 
 | Gtr 3                                                      
e|----------------------------------------------------|--------------------------------------4-------------| 
B|--5-----4--5-----4--5-----4--5-----4--5-----4--5----|-----4--5-----4--5-----4--5-----4--5-----5--4-------| 
G|-----4--------4--------4--------4--------4----------|--4--------4--------4--------4-----------------6----| 
D|----------------------------------------------------|----------------------------------------------------| 
A|----------------------------------------------------|----------------------------------------------------| 
E|----------------------------------------------------|----------------------------------------------------| 

  Gtr 1 
e|----------------------------------------------------|----------------------------------------------------|| 
B|----------------------------------------------------|----------------------------------------------------|| 
G|----------------------------------------------------|----------------------------------------------------|| 
D|--------------------------2-------------------------|--------------2-------------------------------------|| 
A|-----------------------2----------------------------|-----------2--------------------4-----------4-------|| 
E|-----------2--5--2--5-----------2--------------2----|--5--2--5-----------2-----------2-----------2-------|| 
 | 
 | Gtr 2 
e|-----12-------12-------12----14-------14-------14---|-----16-------16-------16-19------------------------|| 
B|--14-------14-------14----16-------16-------16------|--17-------17-------17------------------------------|| 
G|--------14-------14-------------16-------16---------|--------18-------18---------------------------------|| 
D|----------------------------------------------------|----------------------------------------------------|| 
A|----------------------------------------------------|----------------------------------------------------|| 
E|----------------------------------------------------|----------------------------------------------------|| 
 | 
 | Gtr 3 
e|-----9--------9--------9-----11-------11-------11---|-----12-------12-------12-14------------------------|| 
B|--10-------10-------10----12-------12-------12------|--14-------14-------14------------------------------|| 
G|--------11-------11-------------11-------11---------|--------14-------14---------------------------------|| 
D|----------------------------------------------------|----------------------------------------------------|| 
A|----------------------------------------------------|----------------------------------------------------|| 
E|----------------------------------------------------|----------------------------------------------------|| 



************************************ 

L - tied note 
x - dead note 
h - hammer on/pull off 
b - bend 
s - slide 
~ - vibrato 
g - ghost note 
M - palm mute 

************************************ 
  

top 5 | twrp
top rock'n roll
Outras músicas do artista letras do(a) Twrp
2.
Icq
Top cifras »Top artistas »
Petaxxon Comunicação Online
Cifras.com.br - Melhor e mais completo site de cifras e tablaturas do Brasil
Mais de 1 milhão de acordes de músicas cadastradas desde 2003
As informações contidas no nosso site são colaborações de seus usuários e podem conter erros, sendo assim, não nos responsabilizamos sobre nenhuma destas.
close
menos
mais
close
Cor dos acordes:

Cor da letra:

 

save
close
close
 
redimensionar