Cifras e Tablaturas
Týr

Týr

Grindavísan

Cifras Cancelar Versão de Impressão

Týr - Grindavísan

Tom:

  			
Solo 
e|----------------------|------------------------19-|-17----------17-19-19b\|/15-17-19-19b------------| 
B|-------------------12-|------15-------19----------|----19-15-17-----------|-------------------------| 
G|----------11----------|-9/11----14/16----18/19----|-----------------------|----------------15*-15*b-| 
D|-7h9~-7/9----11/12----|---------------------------|-----------------------|-------------------------| 
A|----------------------|---------------------------|-----------------------|-------------------------| 
E|----------------------|---------------------------|-----------------------|-------------------------| 

e|-22p21-21p19-19\17-17----|----------------------------------------------------| 
B|----------------------19-|-20p19p17----17h19p17-------------------------------| 
G|-------------------------|----------19----------19h21p18----------------------| 
D|-------------------------|-------------------------------21p19h21p19p17\16h17-| 
A|-------------------------|----------------------------------------------------| 
E|-------------------------|----------------------------------------------------| 

e|-------------------------|----------------------| 
B|-------------17-19-20-19-|----------------------| 
G|-------18-19-------------|-19-18-16-18-19-19/21-| 
D|-19p16-------------------|----------------------| 
A|-------------------------|----------------------| 
E|-------------------------|----------------------| 

e|-12----12----------------------------|--------------------------------| 
B|----15----14-15-14-12----12----------|-------------------12----12-14~\| 
G|----------------------15----14-15-14-|-12----12-14-15-14----15--------| 
D|-------------------------------------|----14--------------------------| 
A|-------------------------------------|--------------------------------| 
E|-------------------------------------|--------------------------------| 

e|-------------14/18-19--|-------14-18-19-19/21--------|--------------|---------------------------| 
B|----12-14-15-----------|----15----------------20~-19~|----17-19~-19~|p17----17-19~-20-19-19\17~\| 
G|/14--------------------|-16--------------------------|-19-----------|----19---------------------| 
D|-----------------------|-----------------------------|--------------|---------------------------| 
A|-----------------------|-----------------------------|--------------|---------------------------| 
E|-----------------------|-----------------------------|--------------|---------------------------| 

************************************ 

| b  Bend 
| /  Slide up 
| *  Natural harmonic 
| h  Hammer-on 
| ~  Vibrato 
| p  Pull-off 
| \  Slide down 

************************************ 
    	
fixar
fixar inscrever-se

enviado porenviado por: tercmoraes
cifra enviadaCorrigida por: sem correções
logo top cifrasComente
ico música do artistaMúsicas deste artista
ico curtiuCurtiu?
ico destaqueDestaque
Petaxxon Comunicação Online

Cifras.com.br - Melhor e mais completo site de cifras e tablaturas do Brasil Mais de 1 milhão de acordes de músicas cadastradas desde 2003
As informações contidas no nosso site são colaborações de seus usuários e podem conter erros, sendo assim, não nos responsabilizamos sobre nenhuma destas.

close
menos
mais
close
Cor dos acordes:

Cor da letra:

close
Alinhar acordes a direita Alinhar acordes a esquerda Alinhar acordes em baixo Alinhar acordes no topo
close
  Mostrar todos os acordes Esconder acordes muito fáceis Esconder acordes fáceis Esconder acordes intermediários
redimensionar
glossário