Cifras e Tablaturas
U2

U2

Even Better Than the Real Thing

Cifras Cancelar Versão de Impressão Print

U2 - Even Better Than the Real Thing

Tom: A

  			"Even Better Than the Real Thing"  (Aún Mejor Que lo Autentico) 
 -------------------------------  

Agregar distorción 

Intro: (8x)      | Riff 1 
E|--------5-5-----|------------------------------------------ 
B|----------------|------------------------------------------ 
G|----------------|-----------6h7h6-------------------------- 
D|----------------|-----------------------4--5--4------------ 
A|----------------|-------------------5---------------------- 
E|--5-5-----------|------5----------------------------------- 


-Riff 1- 
         A                  Dsus4 D/A          A 
Give me one more chance, and you'll be satisfied 
         D                 Dsus4   D      A 
Give me two more chances you won't be denied 
        
-Riff 2- 

e|----------10-10-|----10----10-10--|----10--10-10-9-9-9-9\7-| 
B|--8-8---8-------|-12----12--------|-10----10---------------| 


       Gadd9 
Well my heart is where it's always been 
    Bm7 
My head is somewhere in between 
        D               Dsus4           D       A 
Give me one more chance let me be your lover tonight 

-Riff 3- 

e|-12-12-12---10-9-7-| 
B|-10-10-10---8--7-5-| 
G|-------------------| 

  A         G       D   A       G         D 
You're the real thing, yeah the real thing 
  A         G       D 
You're the real thing 
  A                   G         D       A 
Even better than the real thing 
      
(Riff 1) 
Give me one last chance and I'm gonna make you sing 
Give me half a chance to ride on the waves that you bring 
(Riff 2) 
You're honey child to a swarm of bees 
Gonna blow right through you like a breeze 
Give me one last dance, we'll slide down the surface of things 

(Riff 3) 
You're the real thing, yeah the real thing 
You're the real thing 
Even better than the real thing 
      
Solo: 
B-6/10-8/10--/13-12\10-10-10---/8-5-3-5/10--/13-13-13-13-12-12-12-10- 
         
e----------------------------------------------17--17--17--17- 
B-/13-13-13-13/15-15-13-10---/15-15-15-13-15-17--17--17--17--- 

e--17-20-17-20-17-20-17-20- 
                              
e-/10-/8-8-8-7-8/10-10--/8-8-8-7-8-7-7\5--5-5-5-5-5-5-5-5- 
B----------------------------------------8-8-8-8-8-8-8-8-- 
        D               G 
We're free to fly the crimson sky 
     D                  G 
The sun won't melt our wings tonight 
 A   G   D 
Oh now, here she comes 
      
-Riff 3- 
Take me higher, take me higher 
Can you take me higher? 
Will you take me higher? 

You're the real thing, yeah the real thing 
You're the real thing 

Even better than the real thing 
Even better than the real thing 
Even better than the real thing. 


    	
fixar
fixar inscrever-se

enviado porenviado por: soycopernico
cifra enviadaCorrigida por: sem correções
logo top cifrasComente
ico música do artistaMúsicas deste artista
ico curtiuCurtiu?
ico destaqueDestaque
Petaxxon Comunicação Online

Cifras.com.br - Melhor e mais completo site de cifras e tablaturas do Brasil Mais de 1 milhão de acordes de músicas cadastradas desde 2003
As informações contidas no nosso site são colaborações de seus usuários e podem conter erros, sendo assim, não nos responsabilizamos sobre nenhuma destas.

close
menos
mais
close
Cor dos acordes:

Cor da letra:

close
Alinhar acordes a direita Alinhar acordes a esquerda Alinhar acordes em baixo Alinhar acordes no topo
close
  Mostrar todos os acordes Esconder acordes muito fáceis Esconder acordes fáceis Esconder acordes intermediários
redimensionar
glossário