Cifras e Tablaturas
U2

U2

New York

Ano: 2000
Album : All That You Can't Leave Behind

Cifras Cancelar Versão de Impressão Print

U2 - New York

Tom: A

  			BASS INTRO; 
G--------------------------------------------------------------------------- 
D--------------------------------------------------------------------------- 
A-----------------------------------3-3-3-3-3-3-3-3------------------------- 
E-5-5-5-5-5-5-5-5-5-3-3-3-3-3-3-3-3-----------------3--3--3--3--3--3--3--3-- 
 
GUITAR INTRO;  (THE A-CHORDS ARE ALL MAJOR CHORDS) 
CHORDS; A          G           C                    G 
E------------------------------------------------------------------ 
B------8---8---8------------------10---10---------------8--8------- 
G--7s9---9---9------7-9------7s9-----9---9-----9-7------------7---- 
D------------------------------------------------------------------ 
A------------------------------------------------------------------ 
E------------------------------------------------------------------ 
 
VERSE I and II 
      A            G           C                     G 
E------------------------------------------------------------------ 
B------8-------8--------8---------10---10------------8---8----8---- 
G--7s9---9---9------7-------7s9------9-----9-------7---7---7------- 
D------------------------------------------------------------------ 
A------------------------------------------------------------------ 
E------------------------------------------------------------------ 
     In New York freedom looks like............. 
      A            G           C 
E------------------------------------------------------------------ 
B-------8-----8----8------8-----8---8------------10-----10--------- 
G----9-----9-----9-----7-----7----7-----7----7-9-----9------------- 
D------------------------------------------------------------------ 
A------------------------------------------------------------------ 
E------------------------------------------------------------------ 
     A            G                 C               G 
E------------------------------------------------------------------ 
B----8-------8------8---------8-----10-10-----------8-------7-7---- 
G--7---7--9----9--7-------7-7------9--9---9-7-9----9--7-9-7-----9-- 
D-----------------------9------------------------------------------ 
A------------------------------------------------------------------ 
E------------------------------------------------------------------ 
     A          G                   C               G 
E--------------------------------------------------------------------- 
B----8-8----8-------8--------8-------8----------10---10-10------8-8-8- 
G-7-9-9-9-------7-7---9-----7--9---7---7----7-9---9--------9---7-7-7-- 
D----------------9--------9------9-------10--------------------------- 
A--------------------------------------------------------------------- 
E--------------------------------------------------------------------- 
 
(RIFF A) 
       A         G                  C             G 
E-------------------------------------------------------- 
B----8---8--8--8----8--8--8-------------10----10--------- 
G--9---9--9--9----7--7--7---7----7--7-9----9------------- 
D-------------------------------------------------------- 
A-------------------------------------------------------- 
E-------------------------------------------------------- 
 
In the lead up to and during verse three play riff A continuously  
gradually increasing a vibrato with the left-hand, not with the tremelo bar. 
 
Chorus; WITH DISTORTION *PLAY REPEATEDLY   #RIFF B 3RD & 4TH TIME 
      A            G            C             G 
E------------------------------------------------------------------ 
B------------------------------------------------------------------ 
G-9--9-9-9-9-9-9----9s7-7-7-7--7-7--7s9-9-9-9--9-9--9s7-7-7-7--7-7- 
D------------------------------------------------------------------ 
A-7--7-7-7-7-7-7----7s5-5-5-5--5-5--5s7-7-7-7--7-7--7s5-5-5-5--5-5- 
E------------------------------------------------------------------ 
 
RIFF B 
        A          G            C             G 
E-----------7-----------------7----------------7--------------7--- 
B---8-10-------10-----8-10------10----8-10-------10---8-10-----10- 
G-9------9---------9-------9-------9--------9-------9--------9---- 
D----------------------------------------------------------------- 
A----------------------------------------------------------------- 
E----------------------------------------------------------------- 
 
FINAL VERSE 
E---------------------------------------------------- 
B--14---------12--------5-----------3-------- 
G--14---------12--------5-----------4---------- 
D--14---------12--------5-----------5------------ 
A--16---------14--------7-----------5-------------- 
E-----------------------------------3---------------- 

    	
fixar
fixar inscrever-se

enviado porenviado por: wilijk
cifra enviadaCorrigida por: sem correções
logo top cifrasComente
ico música do artistaMúsicas deste artista
ico curtiuCurtiu?
ico destaqueDestaque
Petaxxon Comunicação Online

Cifras.com.br - Melhor e mais completo site de cifras e tablaturas do Brasil Mais de 1 milhão de acordes de músicas cadastradas desde 2003
As informações contidas no nosso site são colaborações de seus usuários e podem conter erros, sendo assim, não nos responsabilizamos sobre nenhuma destas.

close
menos
mais
close
Cor dos acordes:

Cor da letra:

close
Alinhar acordes a direita Alinhar acordes a esquerda Alinhar acordes em baixo Alinhar acordes no topo
close
  Mostrar todos os acordes Esconder acordes muito fáceis Esconder acordes fáceis Esconder acordes intermediários
redimensionar
glossário