Cifras e Tablaturas
Vamps

Vamps

Shout About It

Cifras Cancelar Versão de Impressão Print

Vamps - Shout About It

Tom: C

  			INTRO 
e|---------------------------------------------------------------------------| 
B|------0---0------0-----------3---0-------0-----------0---1-------1---------| 
G|------0---0------0---0-------2---0-------0---0-------0---0-----------0-----| 
D|------0---0------0-----------0---0-------0-----------0---2---2-------------| 
A|---------------------------------------------------------------------------| 
E|--3----------3-----------2-----------3-----------0-------------------------| 

e|---------------------------------------------------------------------------| 
B|------0---0-------0--------------------------------------------------------| 
G|------0---0-------0---0----------------------------------------------------| 
D|------0---0-------0--------------------------------------------------------| 
A|---------------------------------------------------------------------------| 
E|--3-----------3------------------------------------------------------------| 



verse 1 
e|---------------------------------------------------------------------------| 
B|------0---0------0-----------3---0-------0-----------0---1-------1---------| 
G|------0---0------0---0-------2---0-------0---0-------0---0-----------0-----| 
D|------0---0------0-----------0---0-------0-----------0---2---2-------------| 
A|---------------------------------------------------------------------------| 
E|--3----------3-----------2-----------3-----------0-------------------------| 
  If you want words to put your mind at rest tonight, come and shout about it 

e|---------------------------------------------------------------------------| 
B|------0---0-------0--------------------------------------------------------| 
G|------0---0-------0---0----------------------------------------------------| 
D|------0---0-------0--------------------------------------------------------| 
A|---------------------------------------------------------------------------| 
E|--3-----------3------------------------------------------------------------| 

e|---------------------------------------------------------------------------| 
B|------0---0------0-----------3---0-------0-----------0---1-------1---------| 
G|------0---0------0---0-------2---0-------0---0-------0---0-----------0-----| 
D|------0---0------0-----------0---0-------0-----------0---2---2-------------| 
A|---------------------------------------------------------------------------| 
E|--3----------3-----------2-----------3-----------0-------------------------| 
  We can talk for a hundred miles and drive, where you're less surrounded 

e|---------------------------------------------------------------------------| 
B|------0---0-------0--------------------------------------------------------| 
G|------0---0-------0---0----------------------------------------------------| 
D|------0---0-------0--------------------------------------------------------| 
A|---------------------------------------------------------------------------| 
E|--3-----------3------------------------------------------------------------| 


verse 2 
e|---------------------------------------------------------------------------| 
B|------0---0------0-----------3---0-------0-----------0---1-------1---------| 
G|------0---0------0---0-------2---0-------0---0-------0---0-----------0-----| 
D|------0---0------0-----------0---0-------0-----------0---2---2-------------| 
A|---------------------------------------------------------------------------| 
E|--3----------3-----------2-----------3-----------0-------------------------| 
  'Cause I can see that the candle you hold inside, has a cloud around it 

e|---------------------------------------------------------------------------| 
B|------0---0-------0--------------------------------------------------------| 
G|------0---0-------0---0----------------------------------------------------| 
D|------0---0-------0--------------------------------------------------------| 
A|---------------------------------------------------------------------------| 
E|--3-----------3------------------------------------------------------------| 

e|---------------------------------------------------------------------------| 
B|------0---0------0-----------3---0-------0-----------0---1-------1---------| 
G|------0---0------0---0-------2---0-------0---0-------0---0-----------0-----| 
D|------0---0------0-----------0---0-------0-----------0---2---2-------------| 
A|---------------------------------------------------------------------------| 
E|--3----------3-----------2-----------3-----------0-------------------------| 
  How can a heart like yours be that high and dry, when it burns the brightest? 

e|---------------------------------------------------------------------------| 
B|------0---0-------0--------------------------------------------------------| 
G|------0---0-------0---0----------------------------------------------------| 
D|------0---0-------0--------------------------------------------------------| 
A|---------------------------------------------------------------------------| 
E|--3-----------3------------------------------------------------------------| 


Chorus 
e|---------------------------------------------------------------------------| 
B|------1---1-------1-----------1---1-------1-----------0---0-------0--------| 
G|------2---2-------2---2-------0---0-------0---0-------0---0-------0---0----| 
D|------2---2-------2-----------2---2-------2-----------2---2-------2--------| 
A|---------------------------------------------------------------------------| 
E|--0-----------0-----------0-----------0-----------0-----------0------------| 
I'm so sorry I can't stop myself from staring at you, when you're tired and blue, my dear 

e|---------------------------------------------------------------------------| 
B|------3---3-------3-----------1---1-------1-----------1---3-------3--------| 
G|------4---4-------4---4-------2---2-------2---2-------0---2-----------2----| 
D|------4---4-------4-----------2---2-------2-----------2---0---0------------| 
A|---------------------------------------------------------------------------| 
E|--2-----------2-----------0-----------0-----------0------------------------| 
                   It's just any reason I get to be closer to you, ooh 

e|---------------------------------------------------------------------------| 
B|------1---3-------3-----------0---0-------0-----------1---3----------------| 
G|------0---2-----------2-------0---0-------0---0-------0---2----------------| 
D|------2---0---0---------------2---2-------2-----------2---0----------------| 
A|---------------------------------------------------------------------------| 
E|--0-----------------------0-----------0-----------0------------------------| 
   I wanna shout about it, ooh                           I wanna shout about it 

e|---------------------------------------------------------------------------| 
B|------0---0-------0--------------------------------------------------------| 
G|------0---0-------0---0----------------------------------------------------| 
D|------0---0-------0--------------------------------------------------------| 
A|---------------------------------------------------------------------------| 
E|--3-----------3------------------------------------------------------------| 




verse 3 
e|---------------------------------------------------------------------------| 
B|------0---0------0-----------3---0-------0-----------0---1-------1---------| 
G|------0---0------0---0-------2---0-------0---0-------0---0-----------0-----| 
D|------0---0------0-----------0---0-------0-----------0---2---2-------------| 
A|---------------------------------------------------------------------------| 
E|--3----------3-----------2-----------3-----------0-------------------------| 
Beneath the window and the water that's in your eyes, that's where I know you're hiding 

e|---------------------------------------------------------------------------| 
B|------0---0-------0--------------------------------------------------------| 
G|------0---0-------0---0----------------------------------------------------| 
D|------0---0-------0--------------------------------------------------------| 
A|---------------------------------------------------------------------------| 
E|--3-----------3------------------------------------------------------------| 

e|---------------------------------------------------------------------------| 
B|------0---0------0-----------3---0-------0-----------0---1-------1---------| 
G|------0---0------0---0-------2---0-------0---0-------0---0-----------0-----| 
D|------0---0------0-----------0---0-------0-----------0---2---2-------------| 
A|---------------------------------------------------------------------------| 
E|--3----------3-----------2-----------3-----------0-------------------------| 
 There's a smile that could light up a thousand lives, and you need reminding 

e|---------------------------------------------------------------------------| 
B|------0---0-------0--------------------------------------------------------| 
G|------0---0-------0---0----------------------------------------------------| 
D|------0---0-------0--------------------------------------------------------| 
A|---------------------------------------------------------------------------| 
E|--3-----------3------------------------------------------------------------| 

verse 4 
e|---------------------------------------------------------------------------| 
B|------0---0------0-----------3---0-------0-----------0---1-------1---------| 
G|------0---0------0---0-------2---0-------0---0-------0---0-----------0-----| 
D|------0---0------0-----------0---0-------0-----------0---2---2-------------| 
A|---------------------------------------------------------------------------| 
E|--3----------3-----------2-----------3-----------0-------------------------| 
 Tell me your fears, don't let 'em live a life alone, let me share the burden 

e|---------------------------------------------------------------------------| 
B|------0---0-------0--------------------------------------------------------| 
G|------0---0-------0---0----------------------------------------------------| 
D|------0---0-------0--------------------------------------------------------| 
A|---------------------------------------------------------------------------| 
E|--3-----------3------------------------------------------------------------| 

e|---------------------------------------------------------------------------| 
B|------0---0------0-----------3---0-------0-----------0---1-------1---------| 
G|------0---0------0---0-------2---0-------0---0-------0---0-----------0-----| 
D|------0---0------0-----------0---0-------0-----------0---2---2-------------| 
A|---------------------------------------------------------------------------| 
E|--3----------3-----------2-----------3-----------0-------------------------| 
'Cause here beside you is a man you better know, know, know, who you can confide in 

e|---------------------------------------------------------------------------| 
B|------0---0-------0--------------------------------------------------------| 
G|------0---0-------0---0----------------------------------------------------| 
D|------0---0-------0--------------------------------------------------------| 
A|---------------------------------------------------------------------------| 
E|--3-----------3------------------------------------------------------------| 


Chorus 
e|---------------------------------------------------------------------------| 
B|------1---1-------1-----------1---1-------1-----------0---0-------0--------| 
G|------2---2-------2---2-------0---0-------0---0-------0---0-------0---0----| 
D|------2---2-------2-----------2---2-------2-----------2---2-------2--------| 
A|---------------------------------------------------------------------------| 
E|--0-----------0-----------0-----------0-----------0-----------0------------| 
I'm so sorry I can't stop myself from staring at you, when you're tired and blue, my dear 

e|---------------------------------------------------------------------------| 
B|------3---3-------3-----------1---1-------1-----------1---3-------3--------| 
G|------4---4-------4---4-------2---2-------2---2-------0---2-----------2----| 
D|------4---4-------4-----------2---2-------2-----------2---0---0------------| 
A|---------------------------------------------------------------------------| 
E|--2-----------2-----------0-----------0-----------0------------------------| 
                   It's just any reason I get to be closer to you, ooh 

e|---------------------------------------------------------------------------| 
B|------1---3-------3-----------0---0-------0-----------1---3----------------| 
G|------0---2-----------2-------0---0-------0---0-------0---2----------------| 
D|------2---0---0---------------2---2-------2-----------2---0----------------| 
A|---------------------------------------------------------------------------| 
E|--0-----------------------0-----------0-----------0------------------------| 
   I wanna shout about it, ooh                           I wanna shout about it 

e|---------------------------------------------------------------------------| 
B|------0---0-------0--------------------------------------------------------| 
G|------0---0-------0---0----------------------------------------------------| 
D|------0---0-------0--------------------------------------------------------| 
A|---------------------------------------------------------------------------| 
E|--3-----------3------------------------------------------------------------| 
               I'm not saying, 
     
BRIDGE 
e|---------------------------------------------------------------------------| 
B|------1---1-------1-----------0---0-------0-----------3---3-------3--------| 
G|------2---2-------2---2-------0---0-------0---0-------4---4-------4---4----| 
D|------2---2-------2-----------0---0-------0-----------4---4-------4--------| 
A|---------------------------------------------------------------------------| 
E|--0-----------0-----------3-----------3-----------2-----------2------------| 
                 All I do,             will make everything you touch turn  

e|---------------------------------------------------------------------------| 
B|------0---0-------0-----------1---1-------1-----------0---0-------0--------| 
G|------0---0-------0---0-------2---2-------2---2-------0---0-------0---0----| 
D|------2---2-------2-----------2---2-------2-----------0---0-------0--------| 
A|---------------------------------------------------------------------------| 
E|--0-----------0-----------0-----------0-----------3-----------3------------| 
   gold,       I'm just waiting to pull you through,           yeah I'll 

e|---------------------------------------------------------------------------| 
B|------3---3-------3-----------0---0-------0-----------1--------------------| 
G|------4---4-------4---4-------0---0-------0---0-------2--------------------| 
D|------4---4-------4-----------2---2-------2-----------2--------------------| 
A|---------------------------------------------------------------------------| 
E|--2-----------2-----------0-----------0-----------0------------------------| 
  take a little off the load,                    yeah, any reason I get to be 

e|---------------------------------------------------------------------------| 
B|--2------------------------------------------------------------------------| 
G|--0------------------------------------------------------------------------| 
D|--1------------------------------------------------------------------------| 
A|---------------------------------------------------------------------------| 
E|---------------------------------------------------------------------------| 
    close to you 

e|---------------------------------------------------------------------------| 
B|------0---0------0-----------3---0-------0-----------0---1-------1---------| 
G|------0---0------0---0-------2---0-------0---0-------0---0-----------0-----| 
D|------0---0------0-----------0---0-------0-----------0---2---2-------------| 
A|---------------------------------------------------------------------------| 
E|--3----------3-----------2-----------3-----------0-------------------------| 
                                                     I wanna shout about it 

e|---------------------------------------------------------------------------| 
B|------0---0-------0----------1-------------------------------1-------------| 
G|------0---0-------0---0------2-------------------------------0-------------| 
D|------0---0-------0----------2-------------------------------2-------------| 
A|---------------------------------------------------------------------------| 
E|--3-----------3--------------0-------------------------------0-------------| 
                      I'm so sorry I can't stop myself from staring at you, 

e|---------------------------------------------------------------------------| 
B|--------0-------------------------3----0----3----1-------------------------| 
G|--------0-------------------------4----0----2----2-------------------------| 
D|--------2-------------------------4----2----0----2-------------------------| 
A|---------------------------------------------------------------------------| 
E|--------0-------------------------2----0---------0-------------------------| 
   When you're tired and blue, my dear, it's just any reason I get to be  

e|---------------------------------------------------------------------------| 
B|--1-------3----------------------------------------------------------------| 
G|--0-------2----------------------------------------------------------------| 
D|--2-------0----------------------------------------------------------------| 
A|---------------------------------------------------------------------------| 
E|--0------------------------------------------------------------------------| 
  closer to you , oooh 
   
*START STRUMMING FOR THE LAST PART* 

C         D          Em 
I wanna shout about it,  

     C          D          Em 
Nooo, I'm gonna shout about it, 

    C             D 
Nooo, I wanna shout the loudest 


e|---------------------------------------------------------------------------| 
B|------0---0------0-----------3---0-------0-----------0---1-------1---------| 
G|------0---0------0---0-------2---0-------0---0-------0---0-----------0-----| 
D|------0---0------0-----------0---0-------0-----------0---2---2-------------| 
A|---------------------------------------------------------------------------| 
E|--3----------3-----------2-----------3-----------0-------------------------| 

e|-----3---------------------------------------------------------------------| 
B|-----0---------------------------------------------------------------------| 
G|-----0---------------------------------------------------------------------| 
D|---------------------------------------------------------------------------| 
A|---------------------------------------------------------------------------| 
E|-----3---------------------------------------------------------------------| 
    	
fixar
fixar inscrever-se

enviado porenviado por: jov-correa
cifra enviadaCorrigida por: sem correções
logo top cifrasComente
ico música do artistaMúsicas deste artista
ico curtiuCurtiu?
ico destaqueDestaque
Petaxxon Comunicação Online

Cifras.com.br - Melhor e mais completo site de cifras e tablaturas do Brasil Mais de 1 milhão de acordes de músicas cadastradas desde 2003
As informações contidas no nosso site são colaborações de seus usuários e podem conter erros, sendo assim, não nos responsabilizamos sobre nenhuma destas.

close
menos
mais
close
Cor dos acordes:

Cor da letra:

close
Alinhar acordes a direita Alinhar acordes a esquerda Alinhar acordes em baixo Alinhar acordes no topo
close
  Mostrar todos os acordes Esconder acordes muito fáceis Esconder acordes fáceis Esconder acordes intermediários
redimensionar
glossário