Cifras e Tablaturas
Van Halen

Van Halen

Can't Stop Lovin' You Tablatura Verificada

Ano: 1995
Compositor : (Eddie Van Halen / Michael Anthony / Sammy Hagar / Alex Van Halen)

Cifras Cancelar Versão de Impressão
cifras

Van Halen - Can't Stop Lovin' You

fixar na tela  
Exibindo: vídeo-aula ver clipes redimensionar
  Intro:  

e|------------------------------------------------------------|  
B|-22ha10--2ha10b12r10-21ha9-22ha10-22ha10b12r10-21ha9-22ha10-|  
G|------------------------------------------------------------|  
D|------------------------------------------------------------|  
A|------------------------------------------------------------|  
E|------------------------------------------------------------|  

Part A:  

e|----------------------------------------------------------------|  
B|-3-----2-----0-0-----2-0-2-3------2-----0-0-----2-0-2-3-----3-2-|  
G|-2-----2-----2-2-----2-2-2-2------2-----2-2-----2-2-2-2-----2-2-|  
D|---2-2---2-2-----2-2------------------------------------0-0-----|  
A|----------------------------------------------------------------|  
E|------------------------------2-2---2-2-----2-2-----------------|  

e|---------|  
B|---------|  
G|-1-1-2-1-|  
D|-2-2-2-2-|  
A|-2-2-2-2-|  
E|-0-0-0-0-|  

e|-------------------------------------------------------------------|  
B|-3-----2-----0-0-----2-2-0-2-3p2---2-----0-0-----2-2-0-2-3-----3-2-|  
G|-2-----2-----2-2-----2-2-2-2-2-----2-----2-2-----2-2-2-2-2-----2-2-|  
D|---2-2---2-2-----2-2---------------------------------------0-0-----|  
A|-------------------------------------------------------------------|  
E|----------------------------------2---2-2----2-2-------------------|  

e|------------------------2-|  
B|----------------------2---|  
G|---1------2---------2-----|  
D|---2--------4-----4-------|  
A|---2--2/4-----2/4---------|  
E|-0------------------------|  

Part B:  

e|-2-2-2--0-0-0-0--------------------2------------------------------|  
B|-3-3-3--3-3-3-3--3-3-3-3--2-2-2-2--3-3-3--2-2-2-2-2-2-2-2-2-2-2-2-|  
G|-2-2-2-----------2-2-2-2--2-2-2-2--4-4-4--4-4-4-4-4-4-4-4-2-2-2-2-|  
D|-0-0-0-----------------------------4------------------------------|  
A|-----------------------------------2------------------------------|  
E|------------------------------------------------------------------|  

e|-0-------------------------------0-------|  
B|-0-------------------------------0-------|  
G|-0-0-0-0-0-0-0--0-0-0-0--0-0-0-0-1-------|  
D|-5-5-5-4-4-4-4--2-2-2-2--0-0-0-0-2-------|  
A|-5-------------------------------2-------|  
E|-3-------------------------------0-/12~~-|  

Chorus:  

e|------------------------------------------------------------------|  
B|-3-----2-----0-0------2-0-2-3-----2-----0-0-----2-2-0-2-3-----3-2-|  
G|-2-----2-----2-2------2-2-2-2-----2-----2-2-----2-2-2-2-2-----2-2-|  
D|---2-2---2-2-----2-2--------------------------------------0-0-----|  
A|------------------------------------------------------------------|  
E|-------------------------------2-2---2-2----2-2-------------------|  

e|------------------------------------|  
B|-----------2-2-3--2-2-----0-----2-2-|  
G|--1-1-2-1--2-2-2--2-2-----2-----2-2-|  
D|--2-2-2-2--2-2-2--2-2-0-0-2-0-0-2-2-|  
A|--2-2-2-2---------------------------|  
E|0---0-0-0---------------------------|  

Bridge:  

e|-5-7-4----0-------|  
B|----------0-------|  
G|------------------|  
D|-------6--7p6p4/2-|  
A|------------------|  
E|------------------|  

Part A:  

e|-------------------------21b22r21--21b22r21p17----------|  
B|--------17ha5----------------------------------19-17b19-|  
G|-14ja2----------14ha2-----------------------------------|  
D|--------------------------------------------------------|  
A|--------------------------------------------------------|  
E|--------------------------------------------------------|  

Part B 1:  

e|----------------------------------0--------------------------------|  
B|----------------------------------1-1-1--0-0-0-0-0-0-0-0-0-0-0-0-0-|  
G|-5-5-5--5-5-5-5--4-4-4-4-4-4-4-4--2-2-2--2-2-2-2-2-2-2-2-2-0-0-0-0-|  
D|-5-5-5--5-5-5-5--5-5-5-5-5-5-5-5--2--------------------------------|  
A|-3--------------------------------0--------------------------------|  
E|-------------------------------------------------------------------|  

e|----------------------------------0-----|  
B|----------------------------------0-----|  
G|----------------------------------1-----|  
D|-3-3-3--2-2-2-2-0-0-0-0-----------2-----|  
A|-3----------------------3-3-3-3---2-----|  
E|-1--------------------------------0-/12-|  

Chorus:  

e|------------------------------------------------------------------|  
B|-3-----2-----0-0------2-0-2-3-----2-----0-0-----2-2-0-2-3-----3-2-|  
G|-2-----2-----2-2------2-2-2-2-----2-----2-2-----2-2-2-2-2-----2-2-|  
D|---2-2---2-2-----2-2--------------------------------------0-0-----|  
A|------------------------------------------------------------------|  
E|-------------------------------2-2---2-2----2-2-------------------|  

e|------------------------------------|  
B|-----------2-2-3--2-2-----0-----2-2-|  
G|--1-1-2-1--2-2-2--2-2-----2-----2-2-|  
D|--2-2-2-2--2-2-2--2-2-0-0-2-0-0-2-2-|  
A|--2-2-2-2---------------------------|  
E|0---0-0-0---------------------------|  

e|--------------------|  
B|------15------------|  
G|16b18----18r16--14--|  
D|--------------------|  
A|--------------------|  
E|--------------------|  

e|--------------------|  
B|------15------------|  
G|16b18----18r16p14---|  
D|--------------------|  
A|--------------------|  
E|--------------------|  

Pre-Solo: B5 E5 C#5 A5  

B5  

e|----------|  
B|--------7-|  
G|------7---|  
D|----9-----|  
A|-7/9------|  
E|----------|  

Solo:  

e|------------------------------------|  
B|------------------------------------|  
G|-12-12-12-11-10-10-12-12/14-12-11-9-|  
D|------------------------------------|  
A|------------------------------------|  
E|------------------------------------|  

e|-------------------------------------------|  
B|-------------------------------------------|  
G|------------------------11-12-11-----------|  
D|-------------------12h14----------12-12/14-|  
A|----------12h14h15-------------------------|  
E|-12h14h15----------------------------------|  

e|-14-15-17-------17-15h17p15h17p15p14----------------------|  
B|----------15-17----------------------15-------------------|  
G|----------------------------------------14-12-11----------|  
D|-------------------------------------------------12-------|  
A|----------------------------------------------------12-10-|  
E|----------------------------------------------------------|  

e|-----------------------------------------------------------------|  
B|-----------------------------------------------------------------|  
G|-------------------------------------------------/12-11----12/14-|  
D|---------------------------------------------12\--------12-------|  
A|9h10p9h10p9h10p9----9h10p9h10p9h10p9-------9---------------------|  
E|-----------------12------------------12--------------------------|  

Pos-Solo:  

e|--------------------------------------|  
B|-----10-----10-------10-------10------|  
G|---9------9----9---9----9---9---------|  
D|-7------6---------------------------6-|  
A|-----------------9--------7-------9---|  
E|--------------------------------------|  

e|-------------------------------------|  
B|-----10-----10-------10-------10-----|  
G|---9------9----9---9----9---9--------|  
D|-7------6----------------------------|  
A|-----------------9--------7----------|  
E|-------------------------------------|  

e|---------5-------------4---5p4-----|  
B|-------5---5---------5---5-----5---|  
G|---6-7-------7-6\4-4-------------4-|  
D|-9---------------------------------|  
A|-7---------------------------------|  
E|-----------------------------------|  

Chorus:  

e|------------------------------------------------------------------|  
B|-3-----2-----0-0------2-0-2-3-----2-----0-0-----2-2-0-2-3-----3-2-|  
G|-2-----2-----2-2------2-2-2-2-----2-----2-2-----2-2-2-2-2-----2-2-|  
D|---2-2---2-2-----2-2--------------------------------------0-0-----|  
A|------------------------------------------------------------------|  
E|-------------------------------2-2---2-2----2-2-------------------|  

e|------------------------------------|  
B|-----------2-2-3--2-2-----0-----2-2-|  
G|--1-1-2-1--2-2-2--2-2-----2-----2-2-|  
D|--2-2-2-2--2-2-2--2-2-0-0-2-0-0-2-2-|  
A|--2-2-2-2---------------------------|  
E|0---0-0-0---------------------------|  

  

cifra enviadacorrigido por:Acelot
enviado porenviada por:Acelot
top 5 | van halen
top rock'n roll
Outras músicas do artista letras do(a) Van Halen
2.
Jump
Top cifras »Top artistas »
Petaxxon Comunicação Online
Cifras.com.br - Melhor e mais completo site de cifras e tablaturas do Brasil
Mais de 1 milhão de acordes de músicas cadastradas desde 2003
As informações contidas no nosso site são colaborações de seus usuários e podem conter erros, sendo assim, não nos responsabilizamos sobre nenhuma destas.
close
menos
mais
close
Cor dos acordes:

Cor da letra:

 

save
close
close
 
redimensionar