Cifras e Tablaturas
Vance Joy

Vance Joy

Call If You Need Me

Cifras Cancelar Versão de Impressão

Vance Joy - Call If You Need Me

Tom: C

  			Straight forward song for the opener of Vance Joy's album Nation of Two. Standard tuning w/o capo.  
May take a couple tries for beginners to get the bridge smooth with the riff. 

Intro/Verse 
   C        C        Am7      G 
e|--------|--------|--------|--------| 
B|---1--1-|---1--1-|---1--1-|---0--0-| 
G|--0--0--|--0--0--|--0--0--|--0--0--| Repeat as required 
D|--------|--------|--------|--------| 
A|-3--3---|-3--3---|-0--0---|-2--2---| 
E|--------|--------|--------|--------| 


Chorus 
   F        F        Am7      G                   G 
e|---5--5-|---5--5-|---8--8-|---7--7-|          |---7--7-| 
B|--------|--------|--------|--------|          |--------| x3 for 1st Chorus 
G|--5--5--|--5--5--|--9--9--|--7--7--| x4 then  |--7--7--| x1 for 2nd Chorus 
D|-3--3---|-3--3---|-7--7---|-5--5---|          |-5--5---| 
A|--------|--------|--------|--------|          |--------| 
E|--------|--------|--------|--------|          |--------| 

Bridge 
If you don't want to play the high riff here, feel free to just repeat the F sequence. 
   F        F               Am7      C 
e|---5--5-|-5p3p0(h)3h5p0-|---8--8-|-----12----12-|   
B|--------|---------------|--------|--------------|  
G|--5--5--|---------------|--9--9--|---12----12---|  
D|-3--3---|---------------|-7--7---|-10----10-----|                        
A|--------|---------------|--------|--------------|                           
E|--------|---------------|--------|--------------|  

   F        F               Am7      G        G        G        G 
e|---5--5-|-5p3p0(h)3h5p0-|---8--8-|---7--7-|---7--7-|---7--7-|---7--7-| 
B|--------|---------------|--------|--------|--------|--------|--------| 
G|--5--5--|---------------|--9--9--|--7--7--|--7--7--|--7--7--|--7--7--|  
D|-3--3---|---------------|-7--7---|-5--5---|-5--5---|-5--5---|-5--5---|                        
A|--------|---------------|--------|--------|--------|--------|--------|                           
E|--------|---------------|--------|--------|--------|--------|--------|  


Outro 
   C        C        Am7      G 
e|--------|--------|--------|--------| 
B|---1--1-|---1--1-|---1--1-|---0--0-| 
G|--0--0--|--0--0--|--0--0--|--0--0--| 
D|--------|--------|--------|--------| 
A|-3--3---|-3--3---|-0--0---|-2--2---| 
E|--------|--------|--------|--------| 


************************************ 

| (h) Optional hammer-on 
| h   Hammer-on 
| p   Pull-off 

************************************ 
    	
fixar
fixar inscrever-se

enviado porenviado por: aman_claudino
cifra enviadaCorrigida por: sem correções
logo top cifrasComente
ico música do artistaMúsicas deste artista
ico curtiuCurtiu?
ico destaqueDestaque
Petaxxon Comunicação Online

Cifras.com.br - Melhor e mais completo site de cifras e tablaturas do Brasil Mais de 1 milhão de acordes de músicas cadastradas desde 2003
As informações contidas no nosso site são colaborações de seus usuários e podem conter erros, sendo assim, não nos responsabilizamos sobre nenhuma destas.

close
menos
mais
close
Cor dos acordes:

Cor da letra:

close
Alinhar acordes a direita Alinhar acordes a esquerda Alinhar acordes em baixo Alinhar acordes no topo
close
  Mostrar todos os acordes Esconder acordes muito fáceis Esconder acordes fáceis Esconder acordes intermediários
redimensionar
glossário