Cifras e Tablaturas
Venom

Venom

Ouverture

Cifras Cancelar Versão de Impressão
cifras

Venom - Ouverture

fixar na tela  
Exibindo: vídeo-aula ver clipes redimensionar
  
C#|----------------------------|----------------------------| 
G#|----------------------------|----------------------------| 
E |--------------0-------------|--------------0-------------| 
B |--------2--------2-----2----|--------2--------2-----2----| 
F#|-----2-----2--------2-------|-----2-----2--------2-------| 
C#|--0-------------------------|--0-------------------------| 


C#|----------------------------|----------------------------| 
G#|----------------------------|----------------------------| 
E |--------------0-------------|--------------0-------------| 
B |--------2--------2-----2----|--------2--------2-----2----| 
F#|-----2-----2--------2-------|-----2-----2--------2-------| 
C#|--2-------------------------|--2-------------------------| 


C#|----------------------------|----------------------------| 
G#|----------------------------|----------------------------| 
E |--------------0-------------|--------------0-------------| 
B |--------2--------2-----2----|--------2--------2-----2----| 
F#|-----2-----2--------2-------|-----2-----2--------2-------| 
C#|--0-------------------------|--0-------------------------| 


C#|----------------------------|----------------------------| 
G#|----------------------------|----------------------------| 
E |--------------0-------------|--------------0-------------| 
B |--------2--------2-----2----|--------2--------2-----2----| 
F#|-----2-----2--------2-------|-----2-----2--------2-------| 
C#|--2-------------------------|--2-------------------------| 


C#|----------------------------|----------------------------| 
G#|----------------------------|----------------------------| 
E |--------------0-------------|--------------0-------------| 
B |--------2--------2-----2----|--------2--------2-----2----| 
F#|-----2-----2--------2-------|-----2-----2--------2-------| 
C#|--0-------------------------|--0-------------------------| 


C#|----------------------------|----------------------------| 
G#|----------------------------|----------------------------| 
E |--------------0-------------|--------------0-------------| 
B |--------2--------2-----2----|--------2--------2-----2----| 
F#|-----2-----2--------2-------|-----2-----2--------2-------| 
C#|--2-------------------------|--2-------------------------| 


C#|----------------------------|----------------------------| 
G#|----------------------------|----------------------------| 
E |--------------0-------------|--------------0-------------| 
B |--------2--------2-----2----|--------2--------2-----2----| 
F#|-----2-----2--------2-------|-----2-----2--------2-------| 
C#|--0-------------------------|--0-------------------------| 


C#|----------------------------|----------------------------| 
G#|----------------------------|----------------------------| 
E |--------------0-------------|--------------0-------------| 
B |--------2--------2-----2----|--------2--------2-----2----| 
F#|-----2-----2--------2-------|-----2-----2--------2-------| 
C#|--2-------------------------|--2-------------------------| 


C#|----------------------------|----------------------------| 
G#|----------------------------|----------------------------| 
E |--------------0-------------|--------------0-------------| 
B |--------2--------2-----2----|--------2--------2-----2----| 
F#|-----2-----2--------2-------|-----2-----2--------2-------| 
C#|--0-------------------------|--0-------------------------| 


C#|----------------------------|----------------------------| 
G#|----------------------------|----------------------------| 
E |--------------0-------------|--------------0-------------| 
B |--------2--------2-----2----|--------2--------2-----2----| 
F#|-----2-----2--------2-------|-----2-----2--------2-------| 
C#|--2-------------------------|--2-------------------------| 


C#|----------------------------|----------------------------| 
G#|----------------------------|----------------------------| 
E |--------------0-------------|--------------0-------------| 
B |--------2--------2-----2----|--------2--------2-----2----| 
F#|-----2-----2--------2-------|-----2-----2--------2-------| 
C#|--0-------------------------|--0-------------------------| 


C#|----------------------------|----------------------------| 
G#|----------------------------|----------------------------| 
E |--------------0-------------|--------------0-------------| 
B |--------2--------2-----2----|--------2--------2-----2----| 
F#|-----2-----2--------2-------|-----2-----2--------2-------| 
C#|--2-------------------------|--2-------------------------| 


C#|----------------------------|----------------------------| 
G#|----------------------------|----------------------------| 
E |-----------0>----------0>---|-----------0>----------0>---| 
B |--------2-----------2-------|--------2-----------2-------| 
F#|-----2-----------2----------|-----2-----------2----------| 
C#|--0>----------2>------------|--0>----------2>------------| 


C#|----------------------------|----------------------------| 
G#|----------------------------|----------------------------| 
E |--------0>-------0>---------|--0>-------0>-------0>------| 
B |-----2--------2--------2----|--------2--------2-----2----| 
F#|--2--------1--------2-------|-----1--------2-------------| 
C#|----------------------------|----------------------------| 


C#|----------------------------|----------------------------| 
G#|----------------------------|----------------------------| 
E |-----------0>----------0>---|-----------0>----------0>---| 
B |--------2-----------2-------|--------2-----------2-------| 
F#|-----2-----------2----------|-----2-----------2----------| 
C#|--0>----------2>------------|--0>----------2>------------| 


C#|----------------------------|----------------------------|-------|| 
G#|----------------------------|----------------------------|-------|| 
E |--------0>-------0>---------|--0>-------0>-------0>------|-------|| 
B |-----2--------2--------2----|--------2--------2-----2----|-------|| 
F#|--2--------1--------2-------|-----1--------2-------------|-------|| 
C#|----------------------------|----------------------------|--0----|| 


******************************** 

> - accentuated note 

******************************** 
  

top 5 | venom
top thrash metal
Outras músicas do artista letras do(a) Venom
Top cifras »Top artistas »
Petaxxon Comunicação Online
Cifras.com.br - Melhor e mais completo site de cifras e tablaturas do Brasil
Mais de 1 milhão de acordes de músicas cadastradas desde 2003
As informações contidas no nosso site são colaborações de seus usuários e podem conter erros, sendo assim, não nos responsabilizamos sobre nenhuma destas.
close
menos
mais
close
Cor dos acordes:

Cor da letra:

 

save
close
close
 
redimensionar