Cifras e Tablaturas
Verax

Verax

Time Wasters

Cifras Cancelar Versão de Impressão Print

Verax - Time Wasters

Tom: Em

  			
Intro (Guitar 1) 
E------------------------------------------------------------------| 
B------------------------------------------------------------------| 
G-------0---------------0---------------0---------------0----------| 
D---5-----5---5-----4-----4---4-----2-----2---2-----4-------4------| 
A-7---7-----7-----5---5-----5-----3---3-----3-----5---5---------5--| 
E------------------------------------------------------------------| 

(Guitar 2)from 0:44 
E-----------------------------------| 
B-----------------------------------| 
G-9--12-12--11--12-9----14-12-11-9--| 
D-----------------------------------| 
A-----------------------------------| 
E-----------------------------------| 

Varse 
E-----------------------------------------------------------------------------------------------------| 
B-----------------------------------------------------------------------------------------------------| 
G-9-9-12-12--11--12-9----14-12-11-----------9-9-12-12--11--12-9----16--16-14-12--14-12-9--------------| 
D-----------------------------------------------------------------------------------------------------| 
A-----------------------------------------------------------------------------------------------------| 
E-----------------------------------------------------------------------------------------------------| 


E-12-12-15-15--14--15-12-12---17-15-14-------12-12-15-15--14--15-12----19--19-17-15--17-15-12---------| 
B-----------------------------------------------------------------------------------------------------| 
G-----------------------------------------------------------------------------------------------------| 
D-----------------------------------------------------------------------------------------------------| 
A-----------------------------------------------------------------------------------------------------| 
E-----------------------------------------------------------------------------------------------------| 

Solo (cradit http://www.akormerkezi.com/verax-time-wasters-tab_sarki-dnhdvn.html) 

E-17p15p13-17p15p13-17--17p15p13-17p15p13-17--17p15p13-17p15p13-17--17p15p13-17p15p13-17--------------| (x3) 
B-----------------------------------------------------------------------------------------------------| 
G-----------------------------------------------------------------------------------------------------| 
D-----------------------------------------------------------------------------------------------------| 
A-----------------------------------------------------------------------------------------------------| 
E-----------------------------------------------------------------------------------------------------| 

E-17p15p13-17p15p13-17--17p15p13-17p15p13-17--17-17b18------------------------------------------------| 
B---------------------------------------------------------12p10---------------------------------------| 
G--------------------------------------------------------------h12p11p9s7-7h9------12p11p9s7-7h9------| 
D-----------------------------------------------------------------------------------------------------| 
A-----------------------------------------------------------------------------------------------------| 
E-----------------------------------------------------------------------------------------------------| 

Outro (from 3:02) 
E-----------------------------------------------------------------------------------------------------| 
B-----------------------------------------------------------------------------------------------------| 
G-9--12-12--11--12-9----14-12-11----------------------------------------------------------------------|(x2) 
D-----------------------------------------------------------------------------------------------------| 
A-----------------------------------------------------------------------------------------------------| 
E-----------------------------------------------------------------------------------------------------| 

Guitar 2 
E-----------------------------------------------------------------------------------------------------| 
B-----------------------------------------------------------------------------------------------------| 
G-9---7---5----7--------------------------------------------------------------------------------------| 
D-----------------------------------------------------------------------------------------------------| 
A-----------------------------------------------------------------------------------------------------| 
E-----------------------------------------------------------------------------------------------------| 
    	
fixar
fixar inscrever-se

enviado porenviado por: andrsouza
cifra enviadaCorrigida por: sem correções
logo top cifrasComente
ico música do artistaMúsicas deste artista
ico curtiuCurtiu?
ico destaqueDestaque
Petaxxon Comunicação Online

Cifras.com.br - Melhor e mais completo site de cifras e tablaturas do Brasil Mais de 1 milhão de acordes de músicas cadastradas desde 2003
As informações contidas no nosso site são colaborações de seus usuários e podem conter erros, sendo assim, não nos responsabilizamos sobre nenhuma destas.

close
menos
mais
close
Cor dos acordes:

Cor da letra:

close
Alinhar acordes a direita Alinhar acordes a esquerda Alinhar acordes em baixo Alinhar acordes no topo
close
  Mostrar todos os acordes Esconder acordes muito fáceis Esconder acordes fáceis Esconder acordes intermediários
redimensionar
glossário