Cifras e Tablaturas
Verdena

Verdena

Loniterp

Cifras Cancelar Versão de Impressão Print

Verdena - Loniterp

Tom: F#m

  			Verdena - Loniterp 

Intro 
e |---5-9-5-| 
B |-7-------| 
G |---------| 4x 
D |---------| 
A |---------| 
E |---------| 

e |-2---0---0-0-0-2-2-2-2--| 
B |-2---2------------------| 
G |-2---2------------------| 
D |-4---2------------------| 
A |-4---0------------------| 
E |-2----------------------| 

Strofa 

e |---5-9-5---5-9-5---5---12-12-10-10-| 
B |-7-------5-------7---7-------------| 
G |-----------------------------------| 
D |-----------------------------------| 
A |-----------------------------------| 
E |-----------------------------------| 

intermezzo 

e |-----5------------4-| 
B |--------------------| 
G |-7----------6-------| 
D |--------------------| 
A |--------------------| 
E |--------------------| 

Strofa 

e |---5-9-5---5-9-5---5---12-12-10-10-| 
B |-7-------5-------7---7-------------| 
G |-----------------------------------| 
D |-----------------------------------| 
A |-----------------------------------| 
E |-----------------------------------| 

intermezzo 

e |-----5------------4-| 
B |--------------------| 
G |-7----------6-------| 
D |--------------------| 
A |--------------------| 
E |--------------------| 

e |-------------------------------------------------| 
B |-------------------------------------------------| 
G |-------------------------------------------------| 
D |-------------------------------------------------| 
A |-------------------------------------------------| 
E |-5-5-5-5-5-5-3-3-3-3-3-3-2-2-2-2-2-2-4-4-4-4-4-4-| 

e |-------------------------------------------------| 
B |-------------------------------------------------| 
G |-------------------------------------------------| 
D |-7-7-7-7-7-7-5-5-5-5-5-5-4-4-4-4-4-4-6-6-6-6-6-6-| 
A |-7-7-7-7-7-7-5-5-5-5-5-5-4-4-4-4-4-4-6-6-6-6-6-6-| 
E |-5-5-5-5-5-5-3-3-3-3-3-3-2-2-2-2-2-2-4-4-4-4-4-4-| 


e |---5-9-5---5-9-5---5---12-12-10-10-| 
B |-7-------5-------7---7-------------| 
G |-----------------------------------| 
D |-----------------------------------| 
A |-----------------------------------| 
E |-----------------------------------| 


e |---------| 
B |---------| 
G |---------| 5x 
D |---4-----| 
A |---4-----| 
E |---2-----| 
    	
fixar
fixar inscrever-se

enviado porenviado por: IronPower4Ever
cifra enviadaCorrigida por: sem correções
logo top cifrasComente
ico música do artistaMúsicas deste artista
ico curtiuCurtiu?
ico destaqueDestaque
Petaxxon Comunicação Online

Cifras.com.br - Melhor e mais completo site de cifras e tablaturas do Brasil Mais de 1 milhão de acordes de músicas cadastradas desde 2003
As informações contidas no nosso site são colaborações de seus usuários e podem conter erros, sendo assim, não nos responsabilizamos sobre nenhuma destas.

close
menos
mais
close
Cor dos acordes:

Cor da letra:

close
Alinhar acordes a direita Alinhar acordes a esquerda Alinhar acordes em baixo Alinhar acordes no topo
close
  Mostrar todos os acordes Esconder acordes muito fáceis Esconder acordes fáceis Esconder acordes intermediários
redimensionar
glossário