Cifras e Tablaturas
Vice Squad

Vice Squad

Stand Strong Stand Proud

Cifras Cancelar Versão de Impressão
cifras

Vice Squad - Stand Strong Stand Proud

fixar na tela  
Exibindo: vídeo-aula ver clipes redimensionar
  
Intro x2 

D#|----------------|----------------|----------------------| 
A#|----------------|----------------|----------------------| 
F#|----------------|----------------|----------------------| 
C#|----------------|----------------|----------------------| 
G#|-9-9-9--8-8-8-8-|-6-6-6--4-4-4-4-|-2-2-2-2--6-4-4-4-4-4-| 
D#|-7-7-7--6-6-6-6-|-4-4-4--2-2-2-2-|-0-0-0-0--4-2-2-2-2-2-| 


Verse x2 

D#|-----------------------|------------| 
A#|-----------------------|------------| 
F#|-----------------------|------------| 
C#|-----------------------|------------| 
G#|-9-9-9-9-9-7-9-9-9-9-9-|-7---5----2-| 
D#|-7-7-7-7-7-5-7-7-7-7-7-|-5---3----0-| 


Pre Chorus x2 

D#|---------------|---------------|-------------|-------------| 
A#|---------------|---------------|-------------|-------------| 
F#|---------------|---------------|-------------|-------------| 
C#|-5-5-5-5-5-5-5-|---------------|-7-7-7-7-7-7-|-9-9-9-9-9-9-| 
G#|-3-3-3-3-3-3-3-|-5-5-5-5-5-5-5-|-5-5-5-5-5-5-|-7-7-7-7-7-7-| 
D#|---------------|-3-3-3-3-3-3-3-|-------------|-------------| 


Chorus x4 

D#|----------|------------------|---------|-------------| 
A#|----------|------------------|---------|-------------| 
F#|----------|------------------|---------|-------------| 
C#|----------|-3--5-5-5-5-5-5-5-|-3-3-5-3-|-2-2-2-2-2-2-| 
G#|-5-x-x-5--|-1--3-3-3-3-3-3-3-|-1-1-3-1-|-0-0-0-0-0-0-| 
D#|-3-x-x-3--|------------------|---------|-------------| 

Chorus End 

D#|----------------|-------| 
A#|----------------|-------| 
F#|----------------|-------| 
C#|----------------|-------| 
G#|-5--5--5-5-5-5--|-7-8-9-| 
D#|-3--3--3-3-3-3--|-5-6-7-| 

Verse x2 

D#|-----------------------|------------| 
A#|-----------------------|------------| 
F#|-----------------------|------------| 
C#|-----------------------|------------| 
G#|-9-9-9-9-9-7-9-9-9-9-9-|-7---5----2-| 
D#|-7-7-7-7-7-5-7-7-7-7-7-|-5---3----0-| 


Pre Chorus x2 

D#|---------------|---------------|-------------|-------------| 
A#|---------------|---------------|-------------|-------------| 
F#|---------------|---------------|-------------|-------------| 
C#|-5-5-5-5-5-5-5-|---------------|-7-7-7-7-7-7-|-9-9-9-9-9-9-| 
G#|-3-3-3-3-3-3-3-|-5-5-5-5-5-5-5-|-5-5-5-5-5-5-|-7-7-7-7-7-7-| 
D#|---------------|-3-3-3-3-3-3-3-|-------------|-------------| 

Chorus x4 

D#|----------|------------------|---------|-------------| 
A#|----------|------------------|---------|-------------| 
F#|----------|------------------|---------|-------------| 
C#|----------|-3--5-5-5-5-5-5-5-|-3-3-5-3-|-2-2-2-2-2-2-| 
G#|-5-x-x-5--|-1--3-3-3-3-3-3-3-|-1-1-3-1-|-0-0-0-0-0-0-| 
D#|-3-x-x-3--|------------------|---------|-------------| 


Chorus End 

D#|----------------|-------| 
A#|----------------|-------| 
F#|----------------|-------| 
C#|----------------|-------| 
G#|-5--5--5-5-5-5--|-7-8-9-| 
D#|-3--3--3-3-3-3--|-5-6-7-| 

Verse x2 

D#|-----------------------|------------| 
A#|-----------------------|------------| 
F#|-----------------------|------------| 
C#|-----------------------|------------| 
G#|-9-9-9-9-9-7-9-9-9-9-9-|-7---5----2-| 
D#|-7-7-7-7-7-5-7-7-7-7-7-|-5---3----0-| 


Pre Chorus x2 

D#|---------------|---------------|-------------|-------------| 
A#|---------------|---------------|-------------|-------------| 
F#|---------------|---------------|-------------|-------------| 
C#|-5-5-5-5-5-5-5-|---------------|-7-7-7-7-7-7-|-9-9-9-9-9-9-| 
G#|-3-3-3-3-3-3-3-|-5-5-5-5-5-5-5-|-5-5-5-5-5-5-|-7-7-7-7-7-7-| 
D#|---------------|-3-3-3-3-3-3-3-|-------------|-------------| 

Bridge x4 

D#|-------------|---------------|-------------|---------------| 
A#|-------------|---------------|-------------|---------------| 
F#|-------------|---------------|-------------|---------------| 
C#|-------------|-5-5-5-5---5-5-|-3--3--5-5-3-|-2-2-2-2--2--2-| 
G#|-5--5--5-5-5-|-3-3-3-3---3-3-|-1--1--3-3-1-|-0-0-0-0--0--0-| 
D#|-3--3--3-3-3-|---------------|-------------|---------------| 

Chorus End 

D#|----------------|-------| 
A#|----------------|-------| 
F#|----------------|-------| 
C#|----------------|-------| 
G#|-5--5--5-5-5-5--|-7-8-9-| 
D#|-3--3--3-3-3-3--|-5-6-7-| 

Verse x2 

D#|-----------------------|------------| 
A#|-----------------------|------------| 
F#|-----------------------|------------| 
C#|-----------------------|------------| 
G#|-9-9-9-9-9-7-9-9-9-9-9-|-7---5----2-| 
D#|-7-7-7-7-7-5-7-7-7-7-7-|-5---3----0-| 


Pre Chorus x2 

D#|---------------|---------------|-------------|-------------| 
A#|---------------|---------------|-------------|-------------| 
F#|---------------|---------------|-------------|-------------| 
C#|-5-5-5-5-5-5-5-|---------------|-7-7-7-7-7-7-|-9-9-9-9-9-9-| 
G#|-3-3-3-3-3-3-3-|-5-5-5-5-5-5-5-|-5-5-5-5-5-5-|-7-7-7-7-7-7-| 
D#|---------------|-3-3-3-3-3-3-3-|-------------|-------------| 

Chorus x4 

D#|----------|------------------|---------|-------------| 
A#|----------|------------------|---------|-------------| 
F#|----------|------------------|---------|-------------| 
C#|----------|-3--5-5-5-5-5-5-5-|-3-3-5-3-|-2-2-2-2-2-2-| 
G#|-5-x-x-5--|-1--3-3-3-3-3-3-3-|-1-1-3-1-|-0-0-0-0-0-0-| 
D#|-3-x-x-3--|------------------|---------|-------------| 


Chorus End 

D#|----------------|-------| 
A#|----------------|-------| 
F#|----------------|-------| 
C#|----------------|-------| 
G#|-5--5--5-5-5-5--|-7-8-9-| 
D#|-3--3--3-3-3-3--|-5-6-7-| 

Outro x2 

D#|----------------|----------------|----------------------| 
A#|----------------|----------------|----------------------| 
F#|----------------|----------------|----------------------| 
C#|----------------|----------------|----------------------| 
G#|-9-9-9--8-8-8-8-|-6-6-6--4-4-4-4-|-2-2-2-2--6-4-4-4-4-4-| 
D#|-7-7-7--6-6-6-6-|-4-4-4--2-2-2-2-|-0-0-0-0--4-2-2-2-2-2-|  
  

top 5 | vice squad
top rock'n roll
Outras músicas do artista letras do(a) Vice Squad
Top cifras »Top artistas »
Petaxxon Comunicação Online
Cifras.com.br - Melhor e mais completo site de cifras e tablaturas do Brasil
Mais de 1 milhão de acordes de músicas cadastradas desde 2003
As informações contidas no nosso site são colaborações de seus usuários e podem conter erros, sendo assim, não nos responsabilizamos sobre nenhuma destas.
close
menos
mais
close
Cor dos acordes:

Cor da letra:

 

save
close
close
 
redimensionar