Cifras e Tablaturas
Victor Young

Victor Young

Stella By Starlight Tablatura Verificada

Compositor : (Victor Young)

Cifras Cancelar Versão de Impressão
cifras

Victor Young - Stella By Starlight

fixar na tela  
Exibindo: vídeo-aula ver clipes redimensionar

Tom:

  
e|------0----------0----------0----------0-----------0-----------0-|  
B|------10---------10---------8----------8-----------8-----------8-|  
G|------9----------9----------8----------8-----------7-----------7-|  
D|------10--------------------7----------7-----------8-----------8-|  
A|---9------8---9----------------------------6---7-------6---7-----|  
E|---------------------8--7-------6---7----------------------------|  

e|---------0----------0----------0--------0----------0---------0----|  
B|---------6----------6----------6--------6----------4---------4----|  
G|---------6----------6----------5--------5----------4---------4----|  
D|---------5-----------------------------------------3---------3----|  
A|------------------------4---5-----4---5---------------------------|  
E|-6---5-------4---5-------------------------4---3------2---3-----3-|  

e|-------0-|  
B|-------3-|  
G|-------4-|  
D|-------2-|  
A|---3-----|  
E|---------|  

Part 1:  

e|--8--7-----------------------------------------7---8---------|  
B|-------------10---------10------------8---10-----------8-----|  
G|-------------9----------9-------------8----------------------|  
D|--------------------------------------7----------------------|  
A|---------9-------0---9------0------------------------------5-|  
E|---------------------------------7---------------------------|  

e|--------------------------------|  
B|---8------6---6/--------1----0--|  
G|---6------5---5/--------2----1--|  
D|---7------7---7/--------3----3--|  
A|-------5--5---------------------|  
E|-------------------3---------3--|  

e|------3---5------5-----5----------5------3----5\----------0----0-|  
B|--6--------------3-----3----------3----------------1------1----1-|  
G|-----------------3-----3---0------3-----------------------2----2-|  
D|----------------------------------------------------------2----2-|  
A|-------------------------------3------3--------------------------|  
E|--------------3-----3----------------------------------1-----1---|  

e|------------|  
B|---------6--|  
G|---------6--|  
D|---------5--|  
A|------------|  
E|---0-----6--|  

Part 2:  

e|---------------------------------------------------------------|  
B|---6---5---3---1---5-------5----------7---10---7---8-----------|  
G|--------------------------------------8------------------------|  
D|---------------------------3----------7------------------------|  
A|---3-------------------2---2---0-------------------------------|  
E|-----------------------------------7------0------------0---0---|  

e|------------------|  
B|-------0-------0--|  
G|-------6-------6--|  
D|-------5-------5--|  
A|------------------|  
E|---5-------5------|  

e|--8---7---5---4---5-------5---7---8---12---10---------------------|  
B|--7-----------------------------------12---10------------9----9---|  
G|--5--------------------5--------------10---10------------10---10--|  
D|--0-----------------0-----------------10---10------------9----9---|  
A|------------------------------------------------0---10--------10--|  
E|------------------------------------------------------------------|  

e|------------------------------------------------------------------|  
B|---5---6------3------3------3---6---6---5---8---------------------|  
G|--------------5------5------5-----------------------5------5---5--|  
D|--------------6------6------6-----------------------6------6---6--|  
A|----------5------5------5---5-------------------5-------5--5---5--|  
E|------------------------------------------------------------------|  

e|-----------------------------------------------|  
B|---6---5------------5---5---3---1---0---3---1--|  
G|-----------7---5----4---4----------------------|  
D|--------------------3---3---------------3---3--|  
A|-----------------------------------------------|  
E|--------------------4---4----------------------|  

  

top 5 | victor young
top jazz
Outras músicas do artista letras do(a) Victor Young
Top cifras »Top artistas »
Petaxxon Comunicação Online
Cifras.com.br - Melhor e mais completo site de cifras e tablaturas do Brasil
Mais de 1 milhão de acordes de músicas cadastradas desde 2003
As informações contidas no nosso site são colaborações de seus usuários e podem conter erros, sendo assim, não nos responsabilizamos sobre nenhuma destas.
close
menos
mais
close
Cor dos acordes:

Cor da letra:

 

save
close
close
 
redimensionar