Cifras e Tablaturas
Vienna Circle

Vienna Circle

Scarlet Dance

Cifras Cancelar Versão de Impressão Print

Vienna Circle - Scarlet Dance

Tom: A

  			
INTRO 
****** 
e|----------------------------------|--------------------------------------| 
B|----------------h-p---------------|--b--r-----h-p------------------------| 
G|--s----9-11--9-8-9-8--------------|-11----9--8-9-8------h----------------| 
D|-9\11-----------------11-----9-11-|----------------11--9-11--h-----------| 
A|--------------------------11------|-------------------------9-11-9-----s-| 
E|----------------------------------|--------------------------------12-9\-| 


--------------------------------------------- 
verse 1 
******** 
Chasing scarlet flow 

e|---------------------| 
B|-------------h-p-----| 
G|-11-9-8---8-8-9-8----| 
D|--------9---------11-| 
A|---------------------| 
E|---------------------| 

The fruits that feed the flames 

e|--------------------------------| 
B|--------------------------------| 
G|--------------------------------| 
D|----11-9----------h-------------| 
A|-11------11-9-7--7-9-7----h---s-| 
E|-----------------------7-7-9--\-| 

That kissed the grace of dawn 

e|-----------| 
B|-----h-----| 
G|----8-9----| 
D|-11-----11-| 
A|-----------| 
E|-----------| 

And soundlessly escaped 

e|--------------------------------------------| 
B|-------p------------s-s----------b--brp-----| 
G|-11---9-8--8-------6\8/6---6-9--11-11--9----| 
D|---11--------9-6---------9---------------11-| 
A|--------------------------------------------| 
E|--------------------------------------------| 


--------------------------------------------- 
Chorus  
******* 
A             B 
  And all the feelings vibrant 
A             B                 C#m 
  And all the leaves of scarlet dance 


--------------------------------------------- 
00:51 
BREAK 
****** 
e|--------------------| 
B|-------p-----b----r-| 
G|-13--16-13--16------| 
D|--------------------| 
A|--------------------| 
E|--------------------| 


--------------------------------------------- 
verse 2 
******** 
The elevations joy 

e|--------------------------| 
B|------------------h-p-----| 
G|----9-11-9-8---8-8-9-8----| 
D|-11----------9---------11-| 
A|--------------------------| 
E|--------------------------| 

And linger on display 

e|--brp---------------------------------| 
B|-12--9---brp---------------------br-b-| 
G|--------11--9--11-9-11--9-11-9--11-11-| 
D|--------------------------------------| 
A|--------------------------------------| 
E|--------------------------------------| 

Its swirling in my mind 
            b 
e|----9-12-12-12-9-12-9-9-| 
B|-12---------------------| 
G|------------------------| 
D|------------------------| 
A|------------------------| 
E|------------------------| 


Illuminated ways 
           br   
e|------11-11-9------------------------------------------------------| 
B|-9-12---------12--br----------------------------------brp----------| 
G|-----------------11-9----9--------9----9-----------9-11--9---------| 
D|----------------------11---11-11----11---11-11--11---------11-9-11-| 
A|-------------------------------------------------------------------| 
E|-------------------------------------------------------------------| 


--------------------------------------------- 
Chorus  
******* 
A            B  
  And chosen winds will follow 
A             B 
  And all his warm of vital breath 
A             B 
  And all the feelings vibrant 
A             B                 C#m 
  And all the leaves of scarlet dance 


--------------------------------------------- 
01:38 
KEYBOARD SOLO 
--------------------------------------------- 
SOLO 
***** 
01:51                                                      br      b 
e|--------14-12---p----------------|----------|----9-11-9-11-9-11-12-12-11-9-| 
B|---h----------16-12--------12----|----------|-12---------------------------| 
G|-13-16--------------13--11----13-|-----b--r-|------------------------------| 
D|---------------------------------|-11-11----|------------------------------| 
A|---------------------------------|----------|------------------------------| 
E|---------------------------------|----------|------------------------------| 

e|-----------------------------|-----------------|-----------------------|--b-----------| 
B|-14--14----14---------9------|---------------b-|-14----14--------------|-10-10-9-9----| 
G|--------11----11-9-11---11-9-|----9----9-11-11-|----11----11-9-8-9-----|-----------11-| 
D|-----------------------------|-11---11---------|--------------------11-|--------------| 
A|-----------------------------|-----------------|-----------------------|--------------| 
E|-----------------------------|-----------------|-----------------------|--------------| 


e|-------------------|----------12----12-11-9-|-------------------|----------12----12-11-9-| 
B|-14----14----------|-14----14----14---------|-14----14----------|-14----14----14---------| 
G|----11----11-9-8-9-|----11------------------|----11----11-9-8-9-|----11------------------| 
D|-------------------|------------------------|-------------------|------------------------| 
A|-------------------|------------------------|-------------------|------------------------| 
E|-------------------|------------------------|-------------------|------------------------| 


--------------------------------------------- 
02:29 
Chorus  
******* 
A            B  
  And chosen winds will follow 
A             B 
  And all his warm of vital breath 
A             B 
  And all the feelings vibrant 
A             B                 C#m 
  And all the leaves of scarlet dance 


--------------------------------------------- 
02:45 
SMALL 
SOLO 
***** 
e|--------------------------------------------| 
B|---------------------------p----------------| 
G|-13--16--16--16--16~~~~--16-13-11-13--------| 
D|-------------------------------------11--11-| 
A|--------------------------------------------| 
E|--------------------------------------------| 



ENJOY.......... 
    	
fixar
fixar inscrever-se

enviado porenviado por: fernsantana
cifra enviadaCorrigida por: sem correções
logo top cifrasComente
ico música do artistaMúsicas deste artista
ico curtiuCurtiu?
ico destaqueDestaque
Petaxxon Comunicação Online

Cifras.com.br - Melhor e mais completo site de cifras e tablaturas do Brasil Mais de 1 milhão de acordes de músicas cadastradas desde 2003
As informações contidas no nosso site são colaborações de seus usuários e podem conter erros, sendo assim, não nos responsabilizamos sobre nenhuma destas.

close
menos
mais
close
Cor dos acordes:

Cor da letra:

close
Alinhar acordes a direita Alinhar acordes a esquerda Alinhar acordes em baixo Alinhar acordes no topo
close
  Mostrar todos os acordes Esconder acordes muito fáceis Esconder acordes fáceis Esconder acordes intermediários
redimensionar
glossário