Cifras e Tablaturas
Viet Cong

Viet Cong

Bunker Buster

Cifras Cancelar Versão de Impressão Print

Viet Cong - Bunker Buster

Tom:

  			

Tuning: Standard 

e|--------------------| 
B|--------------------| 
G|--------------------|      9x 
D|--------------------| 
A|---10----10-10------| 
E|---10----10-10--8---| 

e|--------------------------------------------| 
B|--------------------------------------------| 
G|--------------------------------------------|       6x 
D|---12-12-12-------12-12-12-12-12------------| 
A|---12-12-12-------12-12-12-12-12------------| 
E|---10-10-10-10----10-10-10-10-10-10-10-8----| 

e|---------| 
B|---------| 
G|---------| 
D|---11----| 
A|---x-----| 
E|---10----| 

e|--------------------------------------------| 
B|--------------------------------------------| 
G|--------------------------------------------|       4x 
D|---12-12-12-------12-12-12-12-12------------| 
A|---12-12-12-------12-12-12-12-12------------| 
E|---10-10-10-10----10-10-10-10-10-10-10-8----| 

e|------------------------------------------| 
B|---15-15-------15-15-15-15-15-------------| 
G|---14-14-------14-14-14-14-14-------------|        4x 
D|------------------------------------------| 
A|------------------------------------------| 
E|---------14-------------------14-14-12----| 

e|--------------------------------------------| 
B|--------------------------------------------| 
G|--------------------------------------------|       4x 
D|---12-12-12-------12-12-12-12-12------------| 
A|---12-12-12-------12-12-12-12-12------------| 
E|---10-10-10-10----10-10-10-10-10-10-10-8----| 

e|------------------------------------------| 
B|---15-15-------15-15-15-15-15-------------| 
G|---14-14-------14-14-14-14-14-------------|        4x 
D|------------------------------------------| 
A|------------------------------------------| 
E|---------14-------------------14-14-12----| 

e|--------------------------------------------| 
B|--------------------------------------------| 
G|--------------------------------------------|       4x 
D|---12-12-12-------12-12-12-12-12------------| 
A|---12-12-12-------12-12-12-12-12------------| 
E|---10-10-10-10----10-10-10-10-10-10-10-8----| 

e|-------------------------------------| 
B|---------10----10----10--------------| 
G|------11----11----11-----------------|           8x 
D|---12--------------------------------| 
A|------------------------14-14-12-----| 
E|-------------------------------------| 

e|----------------| 
B|----------------| 
G|----------------| 
D|----------12b---| 
A|-14b------------| 
E|----------------| 

e|------------------------------| Not so sure about this part 
B|--------15h16------15h16------| 
G|------0----------0------------|                16x 
D|---15---------13--------------| 
A|------------------------------| 
E|------------------------------| 

e|--------------------------------------| 
B|--------------------------------------| 
G|--------------------------------------|           12x 
D|--------------------------------------| 
A|--------------------------------------| 
E|---13-13-13--15-15-15-15-15-15-15-15--| 

e|-------------------------------------------------| 
B|-------------------------------------12-12-12----| 
G|-------------------------------------------------|      6x 
D|-------------------------------------------------| 
A|-------------------------16----16----16-16-16----| 
E|---13-13-13--15-15-15-15-15-15-15-15-15-15-15----| 

e|--------------------------------------------| 
B|--------------------------------------------| 
G|--------------------------------------------|       7x 
D|---12-12-12-------12-12-12-12-12------------| 
A|---12-12-12-------12-12-12-12-12------------| 
E|---10-10-10-10----10-10-10-10-10-10-10-8----| 

e|--------------------| 
B|--------------------|          (                       A|-10) 
G|--------------------|      6x  (on 3rd time bend first E|-10) 
D|--------------------| 
A|---10----10-10------| 
E|---10----10-10--8---| 

************************************ 

| /   slide up 
| \   slide down 
| h   hammer-on 
| p   pull-off 
| ~   vibrato 
| +   harmonic 
| x   Mute note 
| b   Bend 
| pb  Pre-bend 
| br  Bend release 
| pbr Pre-bend release 
| brb Bend release bend 

************************************ 
    	
fixar
fixar inscrever-se

enviado porenviado por: paulantunes
cifra enviadaCorrigida por: sem correções
logo top cifrasComente
ico música do artistaMúsicas deste artista
ico curtiuCurtiu?
ico destaqueDestaque
Petaxxon Comunicação Online

Cifras.com.br - Melhor e mais completo site de cifras e tablaturas do Brasil Mais de 1 milhão de acordes de músicas cadastradas desde 2003
As informações contidas no nosso site são colaborações de seus usuários e podem conter erros, sendo assim, não nos responsabilizamos sobre nenhuma destas.

close
menos
mais
close
Cor dos acordes:

Cor da letra:

close
Alinhar acordes a direita Alinhar acordes a esquerda Alinhar acordes em baixo Alinhar acordes no topo
close
  Mostrar todos os acordes Esconder acordes muito fáceis Esconder acordes fáceis Esconder acordes intermediários
redimensionar
glossário