Cifras e Tablaturas
Vince Gill

Vince Gill

South Side Of Dixie

Cifras Cancelar Versão de Impressão
cifras

Vince Gill - South Side Of Dixie

fixar na tela  
Exibindo: vídeo-aula ver clipes redimensionar
  

e|-------------------------------------------------------------10-| 
B|----------------------------------------------------------10----| 
G|------------------------7---(11)r9p7---7-------10-12b(14)-------| 
D|--------0-0-0-----0-7/9---7----------9---10/12------------------| 
A|--3b(5)-------3/5-----------------------------------------------| 
E|----------------------------------------------------------------| 

e|---------10-----------------------------10-------------10----------| 
B|-13b(15)----(15)-(15)r13p10-------------10-------------10----------| 
G|----------------------------13p12p10-------13p12p10-------13p12p10-| 
D|-------------------------------------12-------------12-------------| 
A|-------------------------------------------------------------------| 
E|-------------------------------------------------------------------| 

e|-------------------------------------------------------------------| 
B|-12----------15---15------15---15---15------15---15---15---15------| 
G|-12-12b(14)-(14)-(14)-12b(14)-(14)-(14)-12b(14)-(14)-(14)-(14)r12--| 
D|-------------------------------------------------------------------| 
A|-------------------------------------------------------------------| 
E|-------------------------------------------------------------------| 

e|-------------------------------------------------------------------| 
B|-----12------------------------------------------8\6-----5-----3---| 
G|-10--12----10b(11)----------10b(11)--------------------------------| 
D|--------12---------12p10------------12-11-10-8/9-----6\5---4\3-----| 
A|-------------------------12----------------------------------------| 
E|-------------------------------------------------------------------| 

e|---------------------------------3---10------8-10-10------10-----------| 
B|-----1-----------------------------3-10b(12)------10b(12)-10b(12)r10p8-| 
G|-----------3b(4)p0---0-0-0-0-3/4---------------------------------------| 
D|-3\2---2p0---------3---3-4-5-------------------------------------------| 
A|-----------------------------------------------------------------------| 
E|-----------------------------------------------------------------------| 

e|------------------8----8-------8----8----8------8----8----8------8--| 
B|---8p6---8b(10)-(10)-(10)--8b(10)-(10)-(10)-8b(10)-(10)-(10)-8b(10)-| 
G|-9-----7------------------------------------------------------------| 
D|--------------------------------------------------------------------| 
A|--------------------------------------------------------------------| 
E|--------------------------------------------------------------------| 

e|---8----8----8----8----8------8------------------------------------| 
B|-(10)-(10)-(10)-(10)-(10)-8b(10)r8p6-8-6b(7)-----------------------| 
G|---------------------------------------------7---5-------0---------| 
D|-----------------------------------------------7---6\5-2---3/4\3/4-| 
A|-------------------------------------------------------------------| 
E|-------------------------------------------------------------------| 

e|---------------------0---------0---------0---------------------------| 
B|-1-------------------0---------0---------0---------------------------| 
G|-2p0-------------------3p2p0-----3p2p0-----3p2p0---------------------| 
D|-----3b(4)p0-----0-2---------2---------2---------2b(3)r2b(3)r2-3-4-5-| 
A|-------------3/5-----------------------------------------------------| 
E|---------------------------------------------------------------------| 

e|---------------------------------------------8----8----8----8---| 
B|-3-----8-10b(12)-10b(12)r10p8-8p6---8b(10)-(10)-(10)-(10)-(10)--| 
G|----------------------------------7-----------------------------| 
D|---7/9----------------------------------------------------------| 
A|----------------------------------------------------------------| 
E|----------------------------------------------------------------| 

e|-----8----8----8----5------5----------------------------------------| 
B|-8b(10)-(10)-(10)r8-5b(7)-(7)r5p3-------3---------------------------| 
G|----------------------------------3b(5)---5p4p2-4-----2-------------| 
D|--------------------------------------------------3/4---3\2p0-----0-| 
A|--------------------------------------------------------------3/5---| 
E|--------------------------------------------------------------------| 

e|------------------------------------10---------------10----------------| 
B|-----3---------------------------------13-10-13b(15)----13b(15)r13b(15-| 
G|-------2-----------10h11h12-12b(14)------------------------------------| 
D|-3/4------10h11h12-----------------------------------------------------| 
A|-----------------------------------------------------------------------| 
E|-----------------------------------------------------------------------| 



************************************ 

| p    Pull-off 
| /    Slide up 
| (n)  Ghost note 
| \    Slide down 
| h    Hammer-on 
  

************************************ 
  

top 5 | vince gill
top country
Outras músicas do artista letras do(a) Vince Gill
Top cifras »Top artistas »
Petaxxon Comunicação Online
Cifras.com.br - Melhor e mais completo site de cifras e tablaturas do Brasil
Mais de 1 milhão de acordes de músicas cadastradas desde 2003
As informações contidas no nosso site são colaborações de seus usuários e podem conter erros, sendo assim, não nos responsabilizamos sobre nenhuma destas.
close
menos
mais
close
Cor dos acordes:

Cor da letra:

 

save
close
close
 
redimensionar