Cifras e Tablaturas
Vinicius Gabriel

Vinicius Gabriel

Unsafe

Compositor : (Vinicius Gabriel)

Cifras Cancelar Versão de Impressão Print

Vinicius Gabriel - Unsafe

Tom: C

  			     C 
E|---------3-------------------------| 
B|-----3-----3---3-------------------| 
G|---0---0-----0---------------------| 
D|-----------------------------------| 
A|--3--------------------------------| 
E|-----------------------------------| 



     D 
E|---------2------------------------| 
B|-----3-----3---3------------------| 
G|---2---2-----2--------------------| 
D|-0--------------------------------| 
A|----------------------------------| 
E|----------------------------------| 



     G 
E|---------0------------------------| 
B|-----1-----1---1------------------| 
G|---0---0-----0--------------------| (2x) 
D|----------------------------------| 
A|----------------------------------| 
E|--3-------------------------------| 
    	
fixar
fixar inscrever-se

enviado porenviado por: Vioex
cifra enviadaCorrigida por: sem correções
logo top cifrasComente
ico música do artistaMúsicas deste artista
ico curtiuCurtiu?
ico destaqueDestaque
Petaxxon Comunicação Online

Cifras.com.br - Melhor e mais completo site de cifras e tablaturas do Brasil Mais de 1 milhão de acordes de músicas cadastradas desde 2003
As informações contidas no nosso site são colaborações de seus usuários e podem conter erros, sendo assim, não nos responsabilizamos sobre nenhuma destas.

close
menos
mais
close
Cor dos acordes:

Cor da letra:

close
Alinhar acordes a direita Alinhar acordes a esquerda Alinhar acordes em baixo Alinhar acordes no topo
close
  Mostrar todos os acordes Esconder acordes muito fáceis Esconder acordes fáceis Esconder acordes intermediários
redimensionar
glossário