Cifras e Tablaturas
Violent Femmes

Violent Femmes

Confessions

Cifras Cancelar Versão de Impressão
cifras

Violent Femmes - Confessions

fixar na tela  
Exibindo: vídeo-aula ver clipes redimensionar
  
Am9  Am      Dsus2 
E|------------------------------------------------------------------------| 
B|----------1-------3---1-----------1-1-1--3-3-3----1-1-------------------| 
G|-----2----2---0---2---2---0---2---2-2-2--2-2-2-0--2-2---0---------------| 
D|-----2----2---0---0---0---0---2---2-2-2--0-0-0-0--0-0---0---------------| 
A|-----0----0---0---0---0---0---0---0-0-0--0-0-0-0--0-0---0---------------| 
E|-----0----0---0---0---0---0---0---0-0-0--0-0-0-0--0-0---0---------------| 

Bass line transcribed for guitar 

E|----------|------------------------------------------| 
B|----------|------------------------------------------| 
G|----------|------------------------------------------| 
D|----------|------------------------------------------| 
A|----------|----0-----2--0--------0-----2--0----------| 
E|---\(10)--|-2-----2--------0--2-----2--------2--0----| 

any help with the rest of the song? 
 I also figured out part of Add it Up: 
this is rapid up and down strumming 
E|----------------------------------------|-----------------------------| 
B|----------------------------------------|---2--2--x-x-x-x--2--2-------| 
G|----4-4-4-4-4-4-4-4-4-4-4-4---4--4--4---|---2--2--x-x-x-x--2--2-------| 
D|----4-4-4-4-4-4-4-4-4-4-4-4---4--4--4---|---2--2--x-x-x-x--2--2-------| 
A|----2-2-2-2-2-2-2-2-2-2-2-2---2--2--2---|---0--0--0-0-0-0--0--0-------| 
E|----0-0-0-0-0-0-0-0-0-0-0-0---0--0--0---|---0--0--0-0-0-0--0--0-------| 

i know this is wrong but it's close 
  

cifra enviadasem correções
enviado porenviada por:brunblazkowski
top 5 | violent femmes
top
Outras músicas do artista letras do(a) Violent Femmes
Top cifras »Top artistas »
Petaxxon Comunicação Online
Cifras.com.br - Melhor e mais completo site de cifras e tablaturas do Brasil
Mais de 1 milhão de acordes de músicas cadastradas desde 2003
As informações contidas no nosso site são colaborações de seus usuários e podem conter erros, sendo assim, não nos responsabilizamos sobre nenhuma destas.
close
menos
mais
close
Cor dos acordes:

Cor da letra:

 

save
close
close
 
redimensionar