Cifras e Tablaturas
Violeta Parra

Violeta Parra

Run Run

Cifras Cancelar Versão de Impressão Print

Violeta Parra - Run Run

Tom:

  			|-7---------10--------------------||-7--------10------------------| 
|---8-10-7-----10-8---8---8-10-7--||---8-10-7----10-8---8---8-----| 
|-------------------9---9---------||------------------9---9---9-9-| 
|---------------------------------||------------------------------| 

|-------------7-8-8-7-8-7-8-7----|-------------7-8-8-7-8-7-8-7----| 
|-10-10-10-10-----------------10-|-10-10-10-10-----------------10-| 
|--------------------------------|--------------------------------| 
|--------------------------------|--------------------------------| 

|----10-10-7-7----------------------| 
|-10-----------10-10-8-10-8-10-8-10-| 
|-----------------------------------| 
|-----------------------------------| 

|----10-10-7-7-------------------7-10-8----7----| 
|-10-----------10-10-8-10-8-10-8--------10---10-| 
|-----------------------------------------------| 
|-----------------------------------------------| 

|-7---------10--------------------||-7--------10------------------| 
|---8-10-7-----10-8---8---8-10-7--||---8-10-7----10-8---8---8-----| 
|-------------------9---9---------||------------------9---9---9-9-| 
|---------------------------------||------------------------------| 

despues se repite 
    	
fixar
fixar inscrever-se

enviado porenviado por: jessgomes
cifra enviadaCorrigida por: sem correções
logo top cifrasComente
ico música do artistaMúsicas deste artista
ico curtiuCurtiu?
ico destaqueDestaque
Petaxxon Comunicação Online

Cifras.com.br - Melhor e mais completo site de cifras e tablaturas do Brasil Mais de 1 milhão de acordes de músicas cadastradas desde 2003
As informações contidas no nosso site são colaborações de seus usuários e podem conter erros, sendo assim, não nos responsabilizamos sobre nenhuma destas.

close
menos
mais
close
Cor dos acordes:

Cor da letra:

close
Alinhar acordes a direita Alinhar acordes a esquerda Alinhar acordes em baixo Alinhar acordes no topo
close
  Mostrar todos os acordes Esconder acordes muito fáceis Esconder acordes fáceis Esconder acordes intermediários
redimensionar
glossário