Cifras e Tablaturas
Vital Signs

Vital Signs

Gori (live)

Cifras Cancelar Versão de Impressão
cifras

Vital Signs - Gori (live)

fixar na tela  
Exibindo: vídeo-aula ver clipes redimensionar

Tom:

  
Intro 

e|---------------------------------------------------------------------------| 
B|---------------------------------------------------------------------------| 
G|-----5-5------5------5-5---------------------------------------------------| 
D|-5h7----7-5h7---5h7-----7-5h7p5--------------------------------------------| 
A|-------------------------------7-------------------------------------------| 
E|---------------------------------------------------------------------------| 

This intro riff goes throughout the song. 

Chorus 
All down strums 
e|---5-5-5-5-----------------------------------------------------------------| 
B|---0-0-0-0-----------------------------------------------------------------| 
G|---6-6-6-6-----------------------------------------------------------------| 
D|---7-7-7-7-----------------------------------------------------------------| 
A|---0-0-0-0-----------------------------------------------------------------| 
E|---------------------------------------------------------------------------| 
  

************************************ 

| h  Hammer-on 
| p  Pull-off 

************************************ 
  

top 5 | vital signs
top rock'n roll
Outras músicas do artista letras do(a) Vital Signs
Top cifras »Top artistas »
Petaxxon Comunicação Online
Cifras.com.br - Melhor e mais completo site de cifras e tablaturas do Brasil
Mais de 1 milhão de acordes de músicas cadastradas desde 2003
As informações contidas no nosso site são colaborações de seus usuários e podem conter erros, sendo assim, não nos responsabilizamos sobre nenhuma destas.
close
menos
mais
close
Cor dos acordes:

Cor da letra:

 

save
close
close
 
redimensionar