Cifras e Tablaturas
Voices

Voices

Santo

Cifras Cancelar Versão de Impressão Print

Voices - Santo

Tom: Dm

  			=========================================INTRODUÇÃO===================== 
x=abafar 
 
fazer duas vezes 
-------------------------------------------------------- 
-------------------------------------------------------- 
-------------------------------------------------------- 
-------------------------3------------------5/7p5----5-- 
-3h5-5-5-3h5-5-5-3h-5-5-5-5-3h5-5-5-3h5-5-5------8-5x-8- 
-------------------------------------------------------- 
 
=======================================SOLO DO MEIO====================== 
 
Tom do Solo (D) 
 
  /------------------------------------------------------- 
---------------------------------------------------------- 
--17b(18)r17p15-17b(18)r17p15-17b(18)r17p15-17b(18)r17p15- 
---------------------------------------------------------- 
---------------------------------------------------------- 
---------------------------------------------------------- 
---------------------------------------------------------- continua... 
 
----------------------------\ 
----------------------------------------------------------------- 
-17b(18)r17p15-17b(18)r17p15------------------------------------- 
-----------------------------17~~-p15\10--10-12b(13)r12p10-12~~a- 
----------------------------------------------------------------- 
----------------------------------------------------------------- 
----------------------------------------------------------------- 
 
 
--------------------------------------------------------- 
-----15-------------------------------------------------- 
--/14--17-15-14------------------------------------------ 
---------------17-15-14---------------------------------- 
-----------------------15------------------------------12 
-------------------------17-15-13-\12-13-12-13-15-13-15-- continua... 
 
------------------------------------------- 
------------------------------------------- 
---------------------------------------12-- 
-------------------------------12-14-15---- 
--12-13-12-13-15p13p12--12-13-15----------- 
15--------------------15------------------- 
 
 
-------------------------------------------------------------------------------------------- 
-------------------------------------------------------------------------------------------- 
--/14p12\10h12p10h9-10p9--9~-------------------10--9--7--5-------/7p5-5---------5----------- 
------------------------12------------------5/7------------7p5-5-----7-7-6-5-6-7-7-5-------- 
----------------------------/10p8--8-10~-/-------10x-8x-7x----8-8-------------------8b(9)-5- 
---------------------------------10-------\------------------------------------------------- 

    	
fixar
fixar inscrever-se

enviado porenviado por: Raniel_G3
cifra enviadaCorrigida por: sem correções
logo top cifrasComente
ico música do artistaMúsicas deste artista
ico curtiuCurtiu?
ico destaqueDestaque
Petaxxon Comunicação Online

Cifras.com.br - Melhor e mais completo site de cifras e tablaturas do Brasil Mais de 1 milhão de acordes de músicas cadastradas desde 2003
As informações contidas no nosso site são colaborações de seus usuários e podem conter erros, sendo assim, não nos responsabilizamos sobre nenhuma destas.

close
menos
mais
close
Cor dos acordes:

Cor da letra:

close
Alinhar acordes a direita Alinhar acordes a esquerda Alinhar acordes em baixo Alinhar acordes no topo
close
  Mostrar todos os acordes Esconder acordes muito fáceis Esconder acordes fáceis Esconder acordes intermediários
redimensionar
glossário