Cifras e Tablaturas
Volbeat

Volbeat

A Better Believer

Cifras Cancelar Versão de Impressão
cifras

Volbeat - A Better Believer

fixar na tela  
Exibindo: vídeo-aula ver clipes redimensionar
  
Tuning Drop D (DADGBe) 
 
Intro: 

      (D)            (G)                           (D)              (G) 
e |----x-------------x------------------------------x----------------x---| 
B |----x-------------x------------------------------x----------------x---| 
G |----x-------------x------------------------------x----------------x---| 
D |---12~------------5~----------------------------12~---------------5~--| 
A |---12~------------5~----------------------------12~---------------5~--| 
D |---12~------------5~----------------------------12~---------------5~--| 

  "Let her be, she belongs to me..."   "And the moment..."    "...name" 

------------------------- 
Interlude: (strum fast) 
------------------------- 

      (D)             (Hm)                  (Em)         (A)       (G) 
e |----x---------------2---------------------x------------x---------5------| 
B |----x---------------2---3-----------------x------------x---------5------| 
G |----x---------------2------4--------------x------------x---------5------| 
D |---12---------------2------4--------------2------------7---------5------| 
A |---12---------------2---------------------2------------7---------5------| 
D |---12---------------x---------------------2------------7---------5------| 

----------------------- 
Verse: (strum fast) 2x 
----------------------- 
      (D)                 (Hm)                  (Em) 
e |----x---------------2-------------------------x--------------------------| 
B |----x---------------2---3---------------------x--------------------------| 
G |----x---------------2------4------------------x--------------------------| 
D |---12---------------2------4------------------2--------------------------| 
A |---12---------------2-------------------------2--------------------------| 
D |---12---------------x-------------------------2--------------------------| 

  "A lonely maiden... fire"         "A prince...time"   "Oh baby darling..." 

     (A)                              (G) 
e |---x--------------------------------x--------------------------------------| 
B |---x--------------------------------x--------------------------------------| 
G |---x--------------------------------x--------------------------------------| 
D |---7--------------------------------5~-------------------------------------| 
A |---7--------------------------------5~-------------------------------------| 
D |---7--------------------------------5~-------------------------------------| 
  "...see"    "Your blood belongs...feast" 

------------------------------------------------- 
Chorus: (strum the G chord fast,then let it ring) 
------------------------------------------------- 
                   (D)                  (G)                           Instrumental 
e |-----------------x--------------------x---------------------------x--x---x---x------| 
B |-----------------x--------------------x---------------------------x--x---x---x------| 
G |-----------------x--------------------x---------------------------x--x---x---x------| 
D |----------------12~-------------------5---------------------------7--9--11--12------| 
A |----------------12~-------------------5---------------------------7--9--11--12------| 
D |----------------12~-------------------5---------------------------7--9--11--12------| 

  "Heaven betrayed you"   "They said...saved"  "A better believer" 

||Repeat verse 1x|| 

||Repeat Chorus 1x|| 

-------                                 ------------- 
Bridge:                                 Instrumental: 
-------                                 ------------- 
      (D)   (G)   (D)  (G) 
e |----x-----x-----x-----x-------     ---x--x---x---x------| 
B |----x-----x-----x-----x-------     ---x--x---x---x------| 
G |----x-----x-----x-----x-------     ---x--x---x---x------| 
D |---12~----5~---12~----5~------     ---7--9--11--12------| 
A |---12~----5~---12~----5~------     ---7--9--11--12------| 
D |---12~----5~---12~----5~------     ---7--9--11--12------| 

||Repeat Intro with strums|| 

||Repeat verse 1x|| 

||Repeat Chorus 1x|| 

||Repeat Bridge, strum A instead of Instrumental|| 

End on D 

That's it,I hope you enjoy it as much as I do! Thanks to Mr.Zaenk for the original version! 

tabbed by UraiumWolf_235 
  

cifra enviadasem correções
enviado porenviada por:LINEKERS
top 5 | volbeat
top rock alternativo
Outras músicas do artista letras do(a) Volbeat
Top cifras »Top artistas »
Petaxxon Comunicação Online
Cifras.com.br - Melhor e mais completo site de cifras e tablaturas do Brasil
Mais de 1 milhão de acordes de músicas cadastradas desde 2003
As informações contidas no nosso site são colaborações de seus usuários e podem conter erros, sendo assim, não nos responsabilizamos sobre nenhuma destas.
close
menos
mais
close
Cor dos acordes:

Cor da letra:

 

save
close
close
 
redimensionar