Cifras e Tablaturas
Volbeat

Volbeat

Fallen

Cifras Cancelar Versão de Impressão
cifras

Volbeat - Fallen

fixar na tela  
Exibindo: vídeo-aula ver clipes redimensionar

Tom:

D

ver outros tons
  
D|---------------------------------------------------------------------------| 
A|---------------------------------------------------------------------------| 
F|---------------------------------------------------------------------------| 
C|----------------------------------13p11-------11----11---13---14---13-11-13| 
G|-9/11-----11-----11-----------11----0-----0-0-0-0-0-0--0-0--0-0--0-0--0--0-| 
D|-0----0-0-0--0-0-0--0-0-0-0-0-0-0-0----------------------------------------| 


Feel the sadness burning in my heart  
You left to early father love  
So many things I should have said 
But in your mind you knew it well  
Holding on to what I got and love  
But things still seems so dark and cold  
The fire is burning down my happiness  
But I will rise 


|--------------------------------| 
|--------------------------------| 
|--------------------------------| 
|--------------------------------| 
|-7-7-7-7-7-7-7-7-6-6-6-6-4-4-4-4| 
|-5-5-5-5-5-5-5-5-4-4-4-4-2-2-2-2| 


D|-------------------------------------------------------------------------| 
A|-------------------------------------------------------------------------| 
F|-------------------------------------------------------------------------| 
C|-------------------------------13p11-11-11-11-11-------------------------| 
G|-9/11-11-11-11-11-11-11-11-11-------------------14-12-11-11--------------| 
D|-------------------------------------------------------------------------| 


D|-------------------------------------------------------------------------| 
A|-------------------------------------------------------------------------| 
F|-------------------------------------------------------------------------| 
C|------------------------------13p11-11-11-11-11-13-14-14-14--------------| 
G|-9/11-11-11-11-11-11-11-11-11--------------------------------------------| 
D|-------------------------------------------------------------------------| 


D|-------------------------------------------------------------------------| 
A|-------------------------------------------------------------------------| 
F|-11h13-13-13-13-13-13-11-11----------------------------------------------| 
C|----------------------------14-13-13-11h13p11-11-11-11-11-11-------------| 
G|-------------------------------------------------------------14-12-11----| 
D|-------------------------------------------------------------------------| 


D|-------------------------------------------------------------------------| 
A|-------------------------------------------------------------------------| 
F|-11h13-13-13-13-13-13-11-11----------------------------------------------| 
C|----------------------------14-13-13-11h13p11-11-11-11-11-11-------------| 
G|-------------------------------------------------------------14-12-11----| 
D|-------------------------------------------------------------------------| 


Verso: 

D|---------------------------------------------------------------------------| 
A|---------------------------------------------------------------------------| 
F|---------------------------------------------------------------------------| 
C|----------------------------------13p11-------11----11---13---14---13-11-13| 
G|-9/11-----11-----11-----------11----0-----0-0-0-0-0-0--0-0--0-0--0-0--0--0-| 
D|-0----0-0-0--0-0-0--0-0-0-0-0-0-0-0----------------------------------------| 


So proud and strong you truly were  
I took it with me as a tool  
A gift from father to his only son  
Watching over me with eagle eyes  
You gave me freedom to a life  
where dreams are born and truly became real 

Refrão: 

D|-------------------------------------------------------------------------------| 
A|-------------------------------------------------------------------------------| 
F|-----9-9-9-9-9-9-9-9-9---------------------------------------------------------| 
C|-----9-9-9-9-9-9-9-9-9-9-9-9-9-9-9-9-9-11-11-11-11-11-11-9-9-9-9-9-9-9-9-7-7-7-| 
G|-----7-7-7-7-7-7-7-7-7-9-9-9-9-9-9-9-9-11-11-11-11-11-11-9-9-9-9-9-9-9-9-7-7-7-| 
D|-----0-0-0-0-0-0-0-0-0-7-7-7-7-7-7-7-7-9--9--9--9--9--9--7-7-7-7-7-7-7-7-5-5-5-| 


D|-----------------------------------------------------------------------------------| 
A|-----------------------------------------------------------------------------------| 
F|-----9-9-9-9-9-9-9-9-9-------------------------------------------------------------| 
C|-----9-9-9-9-9-9-9-9-9-9-9-9-9-9-9-9-9-----11-11-11-11-11-11-9-9-9-9-9-9-9-9-7-7-7-| 
G|-----7-7-7-7-7-7-7-7-7-9-9-9-9-9-9-9-9-----11-11-11-11-11-11-9-9-9-9-9-9-9-9-7-7-7-| 
D|-----0-0-0-0-0-0-0-0-0-7-7-7-7-7-7-7-7-----9--9--9--9--9--9--7-7-7-7-7-7-7-7-5-5-5-| 


See me falling, down and lonely  
Are the angles on their way, I'm in the dirt  
Hear me screaming, see me bleeding  
Cause the days no more the same without you 

Pos-Refrão/Verso: 

D|---------------------------------------------------------------------------| 
A|---------------------------------------------------------------------------| 
F|---------------------------------------------------------------------------| 
C|----------------------------------13p11-------11----11---13---14---13-11-13| 
G|-9/11-----11-----11-----------11----0-----0-0-0-0-0-0--0-0--0-0--0-0--0--0-| 
D|-0----0-0-0--0-0-0--0-0-0-0-0-0-0-0----------------------------------------| 


Promise me my son you always will  
Cherish what you love believing in  
Never lose your values, stand up for the day  
Oh dear father I thank you for the years  
I'm writting this song on your desk  
Together we can make it through the day 

Refrão: 

D|-------------------------------------------------------------------------------| 
A|-------------------------------------------------------------------------------| 
F|-----9-9-9-9-9-9-9-9-9---------------------------------------------------------| 
C|-----9-9-9-9-9-9-9-9-9-9-9-9-9-9-9-9-9-11-11-11-11-11-11-9-9-9-9-9-9-9-9-7-7-7-| 
G|-----7-7-7-7-7-7-7-7-7-9-9-9-9-9-9-9-9-11-11-11-11-11-11-9-9-9-9-9-9-9-9-7-7-7-| 
D|-----0-0-0-0-0-0-0-0-0-7-7-7-7-7-7-7-7-9--9--9--9--9--9--7-7-7-7-7-7-7-7-5-5-5-| 


D|-----------------------------------------------------------------------------------| 
A|-----------------------------------------------------------------------------------| 
F|-----9-9-9-9-9-9-9-9-9-------------------------------------------------------------| 
C|-----9-9-9-9-9-9-9-9-9-9-9-9-9-9-9-9-9-----11-11-11-11-11-11-9-9-9-9-9-9-9-9-7-7-7-| 
G|-----7-7-7-7-7-7-7-7-7-9-9-9-9-9-9-9-9-----11-11-11-11-11-11-9-9-9-9-9-9-9-9-7-7-7-| 
D|-----0-0-0-0-0-0-0-0-0-7-7-7-7-7-7-7-7-----9--9--9--9--9--9--7-7-7-7-7-7-7-7-5-5-5-| 


See me falling, down and lonely  
Are the angles on their way, I'm in the dirt  
Hear me screaming, see me bleeding  
Cause the days no more the same without you 

Solo: 
( D   A ) 
( Bm  A  G )  (2x) 
( D ) 

Refrão: 


D|-------------------------------------------------------------------------------| 
A|-------------------------------------------------------------------------------| 
F|-----9-9-9-9-9-9-9-9-9---------------------------------------------------------| 
C|-----9-9-9-9-9-9-9-9-9-9-9-9-9-9-9-9-9-11-11-11-11-11-11-9-9-9-9-9-9-9-9-7-7-7-| 
G|-----7-7-7-7-7-7-7-7-7-9-9-9-9-9-9-9-9-11-11-11-11-11-11-9-9-9-9-9-9-9-9-7-7-7-| 
D|-----0-0-0-0-0-0-0-0-0-7-7-7-7-7-7-7-7-9--9--9--9--9--9--7-7-7-7-7-7-7-7-5-5-5-| 


D|-----------------------------------------------------------------------------------| 
A|-----------------------------------------------------------------------------------| 
F|-----9-9-9-9-9-9-9-9-9-------------------------------------------------------------| 
C|-----9-9-9-9-9-9-9-9-9-9-9-9-9-9-9-9-9-----11-11-11-11-11-11-9-9-9-9-9-9-9-9-7-7-7-| 
G|-----7-7-7-7-7-7-7-7-7-9-9-9-9-9-9-9-9-----11-11-11-11-11-11-9-9-9-9-9-9-9-9-7-7-7-| 
D|-----0-0-0-0-0-0-0-0-0-7-7-7-7-7-7-7-7-----9--9--9--9--9--9--7-7-7-7-7-7-7-7-5-5-5-| 


See me falling, down and lonely  
Are the angles on their way, I'm in the dirt  
Hear me screaming, see me bleeding  
Cause the days no more the same without you 

Final: D  G (4x) 
       D 
  

cifra enviadasem correções
enviado porenviada por:IronPower4Ever
top 5 | volbeat
top rock alternativo
Outras músicas do artista letras do(a) Volbeat
Top cifras »Top artistas »
Petaxxon Comunicação Online
Cifras.com.br - Melhor e mais completo site de cifras e tablaturas do Brasil
Mais de 1 milhão de acordes de músicas cadastradas desde 2003
As informações contidas no nosso site são colaborações de seus usuários e podem conter erros, sendo assim, não nos responsabilizamos sobre nenhuma destas.
close
menos
mais
close
Cor dos acordes:

Cor da letra:

 

save
close
close
 
redimensionar