Cifras e Tablaturas
Volbeat

Volbeat

The Hangsman Body

Cifras Cancelar Versão de Impressão
cifras

Volbeat - The Hangsman Body

fixar na tela  
Exibindo: vídeo-aula ver clipes redimensionar

Tom:

  
|-------|----------------------------------------------------| 
|-------|----------------------------------------------------| 
|-2-222-|---10-7-9~----10-7-9-6~----10-12-12~----10-7-9-6----| 
|-2-222-|-7----------7------------7------------7----------5~-| 
|-0-000-|----------------------------------------------------| 
|-------|----------------------------------------------------| 


|----------------------------------------------------------------| 
|----------------------------------------------------------------| 
|---10-7-9~----10-7-9-6~----10-12-12-10-9-10-9-7~----10-7-9-6----| 
|-7----------7------------7------------------------7----------5~-| 
|----------------------------------------------------------------| 
|----------------------------------------------------------------| 


|------------------------------------------------------------------------------| 
|------------------------------------------------------------------------------| 
|-/14~--/12~--/9~---------------/14~--/14~--/12~--/9~--------------------------| 
|-------------------/12~--/10~-------------------------/12~--/10~--/7~-/5~-/7~-| 
|------------------------------------------------------------------------------| 
|------------------------------------------------------------------------------| 


Pré-Verso: 

|-----------------------------------------------------------| 
|-----------------------------------------------------------| 
|-----------------------------5---------------------------5-| 
|-7----7----7----7----7---5h7------7----7----7----7---5h7---| 
|-0-00-0-00-0-00-0-00-0-0-------00-0-00-0-00-0-00-0-0-------| 
|-----------------------------------------------------------| 


|-----------------------------------------------------| 
|-----------------------------------------------------| 
|-----------------------------5---5-7-7b-7b-5h7p5-----| 
|-7----7----7----7----7---5h7---7-----------------7-5-| 
|-0-00-0-00-0-00-0-00-0-0-----------------------------| 
|-----------------------------------------------------| 


Verso: 

|-----------------------------------------------------------| 
|-----------------------------------------------------------| 
|-----------------------------5---------------------------5-| 
|-7----7----7----7----7---5h7------7----7----7----7---5h7---| 
|-0-00-0-00-0-00-0-00-0-0-------00-0-00-0-00-0-00-0-0-------| 
|-----------------------------------------------------------| 


|----------------------------------------| 
|----------------------------------------| 
|--------------------------------------5-| 
|-7----7----7----7----7---5h7-9~---5h7---| 
|-0-00-0-00-0-00-0-00-0-0-----7~---------| 
|----------------------------------------| 


Refrão: 

|--------------------------------------------------|---------| 
|--------------------------------------------------|---------| 
|--------------------------------------------------|---------| 
|----------7-----7-----9h10----7-----7-----9h10----|-10~--9~-| 
|-10~--9~--0-000-0-000------00-0-000-0-000------00-|--8~--7~-| 
|--8~--7~------------------------------------------|---------| 


Pré-Verso: 

|-----------------------------------------------------------| 
|-----------------------------------------------------------| 
|-----------------------------5---------------------------5-| 
|-7----7----7----7----7---5h7------7----7----7----7---5h7---| 
|-0-00-0-00-0-00-0-00-0-0-------00-0-00-0-00-0-00-0-0-------| 
|-----------------------------------------------------------| 


|-----------------------------------------------------| 
|-----------------------------------------------------| 
|-----------------------------5---5-7-7b-7b-5h7p5-----| 
|-7----7----7----7----7---5h7---7-----------------7-5-| 
|-0-00-0-00-0-00-0-00-0-0-----------------------------| 
|-----------------------------------------------------| 


Verso: 

|-----------------------------------------------------------| 
|-----------------------------------------------------------| 
|-----------------------------5---------------------------5-| 
|-7----7----7----7----7---5h7------7----7----7----7---5h7---| 
|-0-00-0-00-0-00-0-00-0-0-------00-0-00-0-00-0-00-0-0-------| 
|-----------------------------------------------------------| 


|----------------------------------------| 
|----------------------------------------| 
|--------------------------------------5-| 
|-7----7----7----7----7---5h7-9~---5h7---| 
|-0-00-0-00-0-00-0-00-0-0-----7~---------| 
|----------------------------------------| 


Refrão: 

|--------------------------------------------------|---------| 
|--------------------------------------------------|---------| 
|--------------------------------------------------|---------| 
|----------7-----7-----9h10----7-----7-----9h10----|-10~--9~-| 
|-10~--9~--0-000-0-000------00-0-000-0-000------00-|--8~--7~-| 
|--8~--7~------------------------------------------|---------| 


Ponte: 

|-------|----------------------------------------------------| 
|-------|----------------------------------------------------| 
|-2-222-|---10-7-9~----10-7-9-6~----10-12-12~----10-7-9-6----| 
|-2-222-|-7----------7------------7------------7----------5~-| 
|-0-000-|----------------------------------------------------| 
|-------|----------------------------------------------------| 


|----------------------------------------------------------------| 
|----------------------------------------------------------------| 
|---10-7-9~----10-7-9-6~----10-12-12-10-9-10-9-7~----10-7-9-6----| 
|-7----------7------------7------------------------7----------5~-| 
|----------------------------------------------------------------| 
|----------------------------------------------------------------| 


|--------------------------------------------------------------| 
|--------------------------------------------------------------| 
|--------------------------------------------------------------| 
|--------------------------------------------------------------| 
|-333333333333333333333333----7---7---5h7--------7----7----5h7-| 
|-111111111111111111111111-00---0---0-----000000---00---00-----| 


Solo: 

|-------------------------------------------------------------------| 
|-----12---12---12-15-12~-12b-12h13p12-10---------------------------| 
|-----------------------------------------12-10-9-10-12-10~-12-/14~-| 
|-9-9----9----9-----------------------------------------------------| 
|-------------------------------------------------------------------| 
|-------------------------------------------------------------------| 


|----------------------------------------------------------------------| 
|-17b18r17-17-17-15-15-12-15-15-14-14-12-17-17-15-15-12-15-15-14-14-12-| 
|----------------------------------------------------------------------| 
|----------------------------------------------------------------------| 
|----------------------------------------------------------------------| 
|----------------------------------------------------------------------| 


|-22b~-22b-22b-22b-22~-| 
|----------------------| 
|----------------------| 
|----------------------| 
|----------------------| 
|----------------------| 


|----------------------------------------------------------------| 
|----------------------------------------------------------------| 
|----------------------------------------------------------------| 
|------3-5-3~-3-------------------------------------3-5-3~-3-----| 
|-7~-7-5-7-5~-5-2-2-3~-3~-3h5-5555-5h7-7p5-3h5-7~-7-5-7-5~-5-2-2-| 
|-8~-8----------3-3-5~-5~-5h7-7777-7h8-8p7-5h7-8~-8----------3-3-| 


|----------------------------------------------------------| 
|-------------------------------------6-8-6--11-10-8-8-----| 
|-5~-5~-5h7-7777-7h9---9p7-5h7--9~--9-7-9-7~-12-10-9-9--9~-| 
|-7~-7~-7h9-9999-9h10-10p9-7h9-10~-10------------------10~-| 
|----------------------------------------------------------| 
|----------------------------------------------------------| 


|-------------------------------------------------------| 
|-8h10p8----------8-------------------------------------| 
|-9h10p9-10--9-10-9-10--9-7----7------------------------| 
|--------12-10-12---12-10-9-10-9-10-7~-7-8--7-5~-5-7-5~-| 
|---------------------------12---12-8~-8-10-8-7~-7-8-7~-| 
|-------------------------------------------------------| 


Verso: 

|-----------------------------------------------------------| 
|-----------------------------------------------------------| 
|-----------------------------5---------------------------5-| 
|-7----7----7----7----7---5h7------7----7----7----7---5h7---| 
|-0-00-0-00-0-00-0-00-0-0-------00-0-00-0-00-0-00-0-0-------| 
|-----------------------------------------------------------| 


|----------------------------------------| 
|----------------------------------------| 
|--------------------------------------5-| 
|-7----7----7----7----7---5h7-9~---5h7---| 
|-0-00-0-00-0-00-0-00-0-0-----7~---------| 
|----------------------------------------| 


Refrão: 

|--------------------------------------------------|---------| 
|--------------------------------------------------|---------| 
|--------------------------------------------------|---------| 
|----------7-----7-----9h10----7-----7-----9h10----|-10~--9~-| 
|-10~--9~--0-000-0-000------00-0-000-0-000------00-|--8~--7~-| 
|--8~--7~------------------------------------------|---------| 


Ponte: 

|-------|----------------------------------------------------| 
|-------|----------------------------------------------------| 
|-2-222-|---10-7-9~----10-7-9-6~----10-12-12~----10-7-9-6----| 
|-2-222-|-7----------7------------7------------7----------5~-| 
|-0-000-|----------------------------------------------------| 
|-------|----------------------------------------------------| 


|----------------------------------------------------------------| 
|----------------------------------------------------------------| 
|---10-7-9~----10-7-9-6~----10-12-12-10-9-10-9-7~----10-7-9-6----| 
|-7----------7------------7------------------------7----------5~-| 
|----------------------------------------------------------------| 
|----------------------------------------------------------------| 


Solo: 

|-------------------------------------------------------------------| 
|-----12---12---12-15-12~-12b-13h15p13-12-10------------------------| 
|--------------------------------------------12-9-10-12-10~-12-/14~-| 
|-9-9----9----9-----------------------------------------------------| 
|-------------------------------------------------------------------| 
|-------------------------------------------------------------------| 


|-12-12-10-10-9--12-12-10-10-9--12-12-10-10-9--12-12-10-10-9-| 
|------------------------------------------------------------| 
|------------------------------------------------------------| 
|------------------------------------------------------------| 
|------------------------------------------------------------| 
|------------------------------------------------------------| 


|-15-15-14-14-12--17-17-15-15-14--19-19-17-17-15--20-20-19-19-17-/22b-~| 
|----------------------------------------------------------------------| 
|----------------------------------------------------------------------| 
|----------------------------------------------------------------------| 
|----------------------------------------------------------------------| 
|----------------------------------------------------------------------| 
  

top 5 | volbeat
top rock alternativo
Outras músicas do artista letras do(a) Volbeat
Top cifras »Top artistas »
Petaxxon Comunicação Online
Cifras.com.br - Melhor e mais completo site de cifras e tablaturas do Brasil
Mais de 1 milhão de acordes de músicas cadastradas desde 2003
As informações contidas no nosso site são colaborações de seus usuários e podem conter erros, sendo assim, não nos responsabilizamos sobre nenhuma destas.
close
menos
mais
close
Cor dos acordes:

Cor da letra:

 

save
close
close
 
redimensionar