Cifras e Tablaturas
Cifras Cancelar Versão de Impressão
cifras

Voodoo Jürgens - Gitti

fixar na tela  
Exibindo: vídeo-aula ver clipes redimensionar

Tom:

A

ver outros tons
  
Part A 

    Gm      Cm      Dm      Gm 
e|--3--3-|--3-3--|--5--5-|--3-3--| 
B|--3--3-|--4-4--|--6--6-|--3-3--| 
G|--3--3-|--5-5--|--7--7-|--3-3--| 
D|--5--5-|--5-5--|--7--7-|--5-5--| 
A|--5--5-|-33-3--|-55-55-|--5-5--| 
E|-33-33-|-------|-------|-33-3--| 


Part B 

e|-33333333-|-------|-------------|------------| 
B|----------|-44-4--|-3h4h6-6-4-3-|-3-3h4p3-3--| 
G|----------|-------|-------------|------------| 
D|----------|-------|-------------|------------| 
A|----------|-------|-------------|------------| 
E|----------|-------|-------------|------------| 


Part C 

e|--------|------|--------|----------| 
B|--------|------|--------|----------| 
G|--------|------|--------|----------| 
D|--------|------|--------|----------| 
A|--------|------|-555555-|----------| 
E|-0/3-3--|-8-8--|--------|-6-5\3-3--| 


************************************ 

| /   slide up 
| \   slide down 
| h   hammer-on 
| p   pull-off 

************************************ 
  

cifra enviadasem correções
enviado porenviada por:educastilho
top 5 | voodoo jürgens
top rock'n roll
Outras músicas do artista letras do(a) Voodoo Jürgens
Top cifras »Top artistas »
Petaxxon Comunicação Online
Cifras.com.br - Melhor e mais completo site de cifras e tablaturas do Brasil
Mais de 1 milhão de acordes de músicas cadastradas desde 2003
As informações contidas no nosso site são colaborações de seus usuários e podem conter erros, sendo assim, não nos responsabilizamos sobre nenhuma destas.
close
menos
mais
close
Cor dos acordes:

Cor da letra:

 

save
close
close
 
redimensionar