Cifras e Tablaturas
Cifras Cancelar Versão de Impressão
cifras

Voodoo Jürgens - Tulln

fixar na tela  
Exibindo: vídeo-aula ver clipes redimensionar

Tom:

A

ver outros tons
   
Capo 4 


Part A 

Basically this part is played by altering between the chords C and Am.  

The strumming-pattern goes something like: down down-up down-up-down-up 

   C 
e|-0-00-0000-|-0-00-0000-|-0-00-0000-|-0-00-0-0-| 
B|-1-11-1111-|-1-11-1111-|-1-11-1111-|-1-11-0-0-| 
G|-0-00-0000-|-0-00-0000-|-0-00-0000-|-0-00-0-0-| 
D|-2-22-2002-|-2-22-2002-|-2-22-2002-|-2-22-0-0-| 
A|-3-33-3333-|-3-33-3333-|-3-33-3333-|-3-33-2-2-| 
E|-----------|-----------|-----------|------0-0-| 

   Am 
e|-0-00-0000-|-0-00-0000-|-0-00-0000-|-0-00-0-0-|| 
B|-1-11-1111-|-1-11-1111-|-1-11-1111-|-1-11-0-0-|| 
G|-2-22-2002-|-2-22-2002-|-2-22-2002-|-2-22-0-0-|| 
D|-2-22-2002-|-2-22-2002-|-2-22-2002-|-2-22-0-0-|| 
A|-0-00-0000-|-0-00-0000-|-0-00-0000-|-0-00-2-2-|| 
E|-----------|-----------|-----------|------0-0-|| and back to the C 


Part B

e|0------|-------|0---0--|0-----0|0------|-------|-------|-------|| 
B|8------|-------|8---6--|3-----3|1------|-------|-------|-------|| 
G|9------|-------|9---7--|4-----4|2------|-------|-------|-------|| 
D|-------|-------|-------|-------|-------|-------|-------|-------|| 
A|-------|-------|-------|-------|-------|-------|-------|-------|| 
E|-------|-------|-------|-------|-------|-------|-------|-------|| 
  1 2 3 4 1 2 3 4 1 2 3 4 1 2 3 4 1 2 3 4 1 2 3 4 1 2 3 4 1 2 3 4 


************************************ 
  

cifra enviadasem correções
enviado porenviada por:educastilho
top 5 | voodoo jürgens
top rock'n roll
Outras músicas do artista letras do(a) Voodoo Jürgens
Top cifras »Top artistas »
Petaxxon Comunicação Online
Cifras.com.br - Melhor e mais completo site de cifras e tablaturas do Brasil
Mais de 1 milhão de acordes de músicas cadastradas desde 2003
As informações contidas no nosso site são colaborações de seus usuários e podem conter erros, sendo assim, não nos responsabilizamos sobre nenhuma destas.
close
menos
mais
close
Cor dos acordes:

Cor da letra:

 

save
close
close
 
redimensionar