Cifras e Tablaturas
Voodoo Jürgens

Voodoo Jürgens

Weh Au Weh

Cifras Cancelar Versão de Impressão
cifras

Voodoo Jürgens - Weh Au Weh

fixar na tela  
Exibindo: vídeo-aula ver clipes redimensionar
  

   C   F  C   F  C   G  Am 
   weh au weh au weh au weh 
e|-0------0------0---3--0---| 
B|-1---1--1---1--1---0--1---| 
G|-0---2--0---2--0---0--2---| 
D|-2---3--2---3--2---0--2---| 
A|-3------3------3---2--0---| 
E|-------------------3------| 

   F        G     C    Am          F     G    Am 
   wer wird mi am bugl trogn, wird mi am bugl trogn 
e|-1--------3-----0----0-----------1-----3----0-----| 
B|-1--------0-----1-0--1-----------1-----0----1-----| 
G|-2--------0-----0-0--2-----------2-----0----2-----| 
D|-3--------0-----2-0--2-----------3-----0----2-----| 
A|-3--------2-----3-2--0-----------3-----2----0-----| 
E|-1--------3----------------------1-----3----------| 

       F        G     C     Am          F     G     C 
   und wer wird mir a grubn grobn, wird mir a grubn grobn  
e|-----1--------3-----0-----0-----------1-----3-----0-----| 
B|-----1--------0-----1--0--1-----------1-----0-----1-----| 
G|-----2--------0-----0--0--2-----------2-----0-----0-----| 
D|-----3--------0-----2--0--2-----------3-----0-----2-----| 
A|-----3--------2-----3--2--0-----------3-----2-----3-----| 
E|-----1--------3-----------------------1-----3-----------| 
  

cifra enviadasem correções
enviado porenviada por:PAULLET3
top 5 | voodoo jürgens
top rock'n roll
Outras músicas do artista letras do(a) Voodoo Jürgens
Top cifras »Top artistas »
Petaxxon Comunicação Online
Cifras.com.br - Melhor e mais completo site de cifras e tablaturas do Brasil
Mais de 1 milhão de acordes de músicas cadastradas desde 2003
As informações contidas no nosso site são colaborações de seus usuários e podem conter erros, sendo assim, não nos responsabilizamos sobre nenhuma destas.
close
menos
mais
close
Cor dos acordes:

Cor da letra:

 

save
close
close
 
redimensionar