Cifras e Tablaturas
Waterparks

Waterparks

Dizzy

Cifras Cancelar Versão de Impressão
cifras

Waterparks - Dizzy

fixar na tela  
Exibindo: vídeo-aula ver clipes redimensionar

Tom:

D

ver outros tons
  
Guitar 1 - Awsten Knight 
Guitar 2 - Geoff Wigington 

Check out my guitar cover on YouTube: https://www.youtube.com/watch?v=anRB5hdg1qA 

Intro/Verse (guitar 2 starts): 
Guitar 2 
e|-------------------------------| 
B|-------2-------6--------11~----| 
G|----3~------6~------11~--------| 
D|-------------------------------| 
A|-1~------4~------/9~-----------| 
D|-------------------------------| 

Guitar 1, 4x - comes in after the above riff is played 4 times 
e|--------------------------------------------------------| 
B|-9-7-6-----------9-7-6----------------------------------| 
G|-------6-------6-------6--------------------------------| 
D|---------8-6-8-----------8-x-x~\------------------------| 
A|-----------------------------x~\-(pickscrape effect)----| 
D|--------------------------------------------------------| 

Chorus 
Guitar 1, 2x 
e|------------------------------------------------------------------------| 
B|------------------------------------------------------------------------| 
G|------------------------------------------------------------------------| 
D|------------------------------------------------------------------------| 
A|-----------------------------------4-4----------------------------------| 
D|-8-8-8-8-8-8-8-8-4-4-4-4-4-4-4-4---4-4--8-8-8-8-8-8-8-8-4-4-4-4-4-4-4-4-| 

Guitar 2, 2x 
e|------------------------------------------------------------------------------------------| 
B|------------------------------------------------------------------------------------------| 
G|------------------------------------------------------------------------------------------| 
D|-------------------------------------------------------------------------\\\--------------| 
A|-----------------------------------4-4-----------------------------------\\\-(pickscrape)-| 
D|-8-8-8-8-8-8-8-8-4-4-4-4-4-4-4-4---4-4--8-8-8-8-8-8-8-8-4-4-4-4-4-4-4-4--\\\--------------| 

verse 2 (guitar 2 starts): 
Guitar 2 
e|-------------------------------| 
B|-------2-------6--------11~----| 
G|----3~------6~------11~--------| 
D|-------------------------------| 
A|-1~------4~------/9~-----------| 
D|-------------------------------| 

Guitar 1, 4x - comes in after the above riff is played 4 times 
e|--------------------------------------------------------| 
B|-9-7-6-----------9-7-6----------------------------------| 
G|-------6-------6-------6--------------------------------| 
D|---------8-6-8-----------8-x-x~\------------------------| 
A|-----------------------------x~\-(pickscrape effect)----| 
D|--------------------------------------------------------| 

Chorus 
Guitar 1, 2x 
e|------------------------------------------------------------------------| 
B|------------------------------------------------------------------------| 
G|------------------------------------------------------------------------| 
D|------------------------------------------------------------------------| 
A|-----------------------------------4-4----------------------------------| 
D|-8-8-8-8-8-8-8-8-4-4-4-4-4-4-4-4---4-4--8-8-8-8-8-8-8-8-4-4-4-4-4-4-4-4-| 

Guitar 2, 2x 
e|------------------------------------------------------------------------------------------| 
B|------------------------------------------------------------------------------------------| 
G|------------------------------------------------------------------------------------------| 
D|-------------------------------------------------------------------------\\\--------------| 
A|-----------------------------------4-4-----------------------------------\\\-(pickscrape)-| 
D|-8-8-8-8-8-8-8-8-4-4-4-4-4-4-4-4---4-4--8-8-8-8-8-8-8-8-4-4-4-4-4-4-4-4--\\\--------------| 

Bridge (guitar 2 only), 6x: 
e|-------------------------------| 
B|-------2-------6--------11~----| 
G|----3~------6~------11~--------| 
D|-------------------------------| 
A|-1~------4~------/9~-----------| 
D|-------------------------------| 

Chorus 
Guitar 1, 2x 
e|------------------------------------------------------------------------| 
B|------------------------------------------------------------------------| 
G|------------------------------------------------------------------------| 
D|------------------------------------------------------------------------| 
A|-----------------------------------4-4----------------------------------| 
D|-8-8-8-8-8-8-8-8-4-4-4-4-4-4-4-4---4-4--8-8-8-8-8-8-8-8-4-4-4-4-4-4-4-4-| 

Guitar 2, 2x 
e|------------------------------------------------------------------------------------------| 
B|------------------------------------------------------------------------------------------| 
G|------------------------------------------------------------------------------------------| 
D|-------------------------------------------------------------------------\\\--------------| 
A|-----------------------------------4-4-----------------------------------\\\-(pickscrape)-| 
D|-8-8-8-8-8-8-8-8-4-4-4-4-4-4-4-4---4-4--8-8-8-8-8-8-8-8-4-4-4-4-4-4-4-4--\\\--------------| 

Final Chorus/Outro (2:32): 
Guitar 1 
e||-------------------------------------------------------------------------------| 
B||o------------------------------------------------------------------------------| 
G||-------------------------------------------------------------------------------| 
D||--------------------------------------------------------------------------\\\--| 
A||o-----------------------------------4-4-----------------------------------\\\--| 
D||--8-8-8-8-8-8-8-8-4-4-4-4-4-4-4-4---4-4--8-8-8-8-8-8-8-8-4-4-4-4-4-4-4-4--\\\--| 

e|---------------------------------------------------------------------------||----------------| 
B|--------------------------------------------------------------------------o||----------------| 
G|---------------------------------------------------------------------------||----------------| 
D|----------------------------------------------------------------------\\\--||-4---4----6-6-6-| 
A|----------------------------------4-4---------------------------------\\\-o||-4---4----6-6-6-| 
D|-8-8-8-8-8-8-8-8-4-4-4-4-4-4-4-4--4-4-8-8-8-8-8-8-8-8-4-4-4-4-4-4-4-4-\\\--||-4---4----6-6-6-| 
                                                                         Skip on the second time^ 

Guitar 2    
e||------------------------------------------------------------------------------| 
B||o-----------------------------------------------------------------------------| 
G||------------------------------------------------------------------------------| 
D||------------------------------------------------------------------------------| 
A||o-----------------------------------4-4---------------------------------------| 
D||--8-8-8-8-8-8-8-8-4-4-4-4-4-4-4-4---4-4--8-8-8-8-8-8-8-8-4-4-4-4-4-4-4-4------| 

e|-----------------------------14-13-11----------------||-------| 
B|--------7--------11-------11~--------11-x-11~-------o||---9~--| 
G|--6~-8~----8~-11~------11~---------------------------||-------| 
D|-----------------------------------------------------||-------| 
A|----------------------------------------------------o||-------| 
D|-----------------------------------------------------||-------| 
                ^Synth part transcribed to guitar 

************************************ 

| ~    Vibrato 
| /    Slide up 
| x    Dead note 
| \    Slide down 
| \\\  Pickscrape 

************************************ 
  

top 5 | waterparks
top rock'n roll
Outras músicas do artista letras do(a) Waterparks
Top cifras »Top artistas »
Petaxxon Comunicação Online
Cifras.com.br - Melhor e mais completo site de cifras e tablaturas do Brasil
Mais de 1 milhão de acordes de músicas cadastradas desde 2003
As informações contidas no nosso site são colaborações de seus usuários e podem conter erros, sendo assim, não nos responsabilizamos sobre nenhuma destas.
close
menos
mais
close
Cor dos acordes:

Cor da letra:

 

save
close
close
 
redimensionar