Cifras e Tablaturas
Waterparks

Waterparks

New Wave

Cifras Cancelar Versão de Impressão
cifras

Waterparks - New Wave

fixar na tela  
Exibindo: vídeo-aula ver clipes redimensionar
  
Intro (guitar 2 only) 
e|--------------------------------------------------------------------------------------| 
B|-5-5-----9-9-----------------9-9-----------------9-9-----------------9-9--------------| 
G|-6-6-----9-9---6-6---8-8-----9-9---8-8---6-6-----9-9---6-6---8-8-----9-9---8-8---6-6--| 
D|-6-6-----9-9---7-7---9-9-----9-9---9-9---7-7-----9-9---7-7---9-9-----9-9---9-9---7-7--| 
A|---------------7-7---9-9-----------9-9---7-7-----------7-7---9-9-----------9-9---7-7--| 
D|--------------------------------------------------------------------------------------| 

verse 1 (guitar 2 only) 
e|----------------------------------------------------------------| 
B|--9-9-----------------9-9-------------------9-9-----------------| 
G|--9-9---6-6---8-8-----9-9-----8-8---6-6-----9-9---6-6---8-------| 
D|--9-9---7-7---9-9-----9-9-----9-9---7-7-----9-9---7-7---9--x16--| 
A|--------7-7---9-9-------------9-9---7-7-----------7-7---9-------| 
D|----------------------------------------------------------------| 

Chorus 

Guitar 1 
e|------------------------------------------------------------------| 
B|------------------------------------------------------------------| 
G|-------------6------------------6-----4---------------------------| 
D|-9-----7-----6--x16-9-----7-----6--x8-4--x8-----------------------| 
A|-9--x8-7--x8-4------9--x8-7--x8-4-----2---------------------------| 
D|-9-----7------------9-----7---------------------------------------| 


Guitar 2 
e|------------------------------------------------------------------------| 
B|------------------------------------------------------------------------| 
G|-9-----11-----13------16-16-13-16-9-----11-11-13-13-14-14-13-----11-----| 
D|----x8-----x8-----x16----------------x6-----------------------x8-----x8-| 
A|-7-----9------11------14-14-11-14-7-----9--9--11-11-12-12-11-----9------| 
D|------------------------------------------------------------------------| 

verse 2 

Guitar 1 (muted notes across the fretboard) 
e|-----------------------------------------------------------------0---0--------0--------0---0-----------| 
B|-------------------------------------------------------------------4---0~---7---7--------4---0~--------| 
G|----------------------------------------------------------------------------------6~--------------4/6~-| 
D|-2-2---------------------------------------------------------------------------------------------------| 
A|-2-2---------------------------------------------------------------------------------------------------| 
D|-2-2-(2)-x6-----------(4)--x6----------(2)-x6---------(4)--x6------------------------------------------| 

Guitar 2 
e|---------------------------------------------------------------------|-0~------0~-|------------| 
B|-5-5----9-9--------------9-9--------------9-9--------------9-9-------|-0~--0~--0~-|-9--x14-7-7-| 
G|-6-6----9-9--6-6--8-8----9-9--8-8--6-6----9-9--6-6--8-8----9-9--8-8--|-x---8~--6~-|------------| 
D|-6-6----9-9--7-7--9-9----9-9--9-9--7-7----9-9--7-7--9-9----9-9--9-9--|-9~--9~-----|------------| 
A|-------------7-7--9-9---------9-9--7-7---------7-7--9-9---------9-9--|------------|------------| 
D|---------------------------------------------------------------------|---------2x-|------------| 
           
Chorus 

Guitar 1 
e|------------------------------------------------------------------| 
B|------------------------------------------------------------------| 
G|-------------6------------------6-----4---------------------------| 
D|-9-----7-----6--x16-9-----7-----6--x8-4--x8-----------------------| 
A|-9--x8-7--x8-4------9--x8-7--x8-4-----2---------------------------| 
D|-9-----7------------9-----7---------------------------------------| 


Guitar 2 
e|------------------------------------------------------------------------| 
B|------------------------------------------------------------------------| 
G|-9-----11-----13------16-16-13-16-9-----11-11-13-13-14-14-13-----11-----| 
D|----x8-----x8-----x16----------------x6-----------------------x8-----x8-| 
A|-7-----9------11------14-14-11-14-7-----9--9--11-11-12-12-11-----9------| 
D|------------------------------------------------------------------------| 
                                                                                        
Chorus Pt. 2 

Guitar 1 
e|----------------------------------------------------------------| 
B|----------------------------------------------------------------| 
G|----------------------------------------------------------------| 
D|-9~-11~-7~-7------9~-11~-7~-7------9-9-9-9----------------------| 
A|-9~-11~-7~-7--x16-9~-11~-7~-7--x12-9-9-9-9----------------------| 
D|-9~-11~-7~-7------9~-11~-7~-7------9-9-9-9----------------------| 

Guitar 2 
e|----------------------------------------------------------------| 
B|----------------------------------------------------------------| 
G|-16~-13~-18~-9------8-----16~-13~-18~-9------11-----------------| 
D|----------------x12----x8----------------x12----x4-x-x-x-x------| 
A|-14~-11~-16~-7------6-----14~-11~-16~-7------9-----x-x-x-x------| 
D|---------------------------------------------------x-x-x-x------| 

Bridge 

Guitar 1 
e|------------------------------------2x-|----------------------------------------------------------| 
B|---------------------------------------|----------------------------------------------------------| 
G|---------------------------------------|----------------------------------------------------------| 
D|-6-----4-----2------6-----4-----2------|-2--x8-4--x8-6--x16-6--x16-4--x16-2--x8-1--x8---(pause)---| 
A|-7--x8-4--x8-2--x16-7--x8-4--x8-2--x16-|----------------------------------------------------------| 
D|-6-----4-----2------6-----4-----2------|----------------------------------------------------------| 

Guitar 2 
e|------------------------------------------------7----7---------------------19-16~-19-16~-14~---14-16b17rb-| 
B|--------------------------------------------------9~---9~-7~----7-9~-10~-9~/----------------17~-----------| 
G|-9------16-----11----9~-999-11----9------16----------------9~---------------------------------------------| 
D|----x12-----x4----x6-----------x4----x16-----x16----------------------------------------------------------| 
A|-7------14-----9-----7~-777-9-----7------14---------------------------------------------------------------| 
D|----------------------------------------------------------------------------------------------------------| 

e|-(14~)------11------11------11------12~~~~----------------------------------------------------------------| 
B|------------14b16~--14b16~--14b16r~-15b17~---------------------9--x8-7-7-7-7-----7-7----------------------| 
G|--------------------------------------------9-9---9---9-9---9----------------9-9-----9-9-9-9-9-9-9/16-----| 
D|-------------------------------------------------------------------------------------------------------x8-| 
A|--------------------------------------------7-7---7---7-7---7--------------------------------------14-----| 
D|----------------------------------------------------------------------------------------------------------| 

Final Chorus/Outro 

Guitar 1 
e|--------------------------------------------------------------------------------------| 
B|--------------------------------------------------------------------------------------| 
G|--(silence)--6------------------6-----4-----------------------------------------------| 
D|-------------6--x16-9-----7-----6--x8-4--x8-9~-11~-7~-7------9~-11~-7~-7------9-9-9-9-| 
A|-------------4------9--x8-7--x8-4-----2-----9~-11~-7~-7--x16-9~-11~-7~-7--x12-9-9-9-9-| 
D|--------------------9-----7-----------------9~-11~-7~-7------9~-11~-7~-7------9-9-9-9-| 

e|--------------------------------------------------------------------------------| 
B|--------------------------------------------------------------------------------| 
G|--------------------------------------------------------------------------------| 
D|-6-----4-----2------2-----6-----7-----9-----2-2----(random guitar effects here)-| 
A|-7--x8-4--x8-2--x16-2--x8-7--x8-7--x8-9--x8-2-2---------------------------------| 
D|-6-----4-----2------2-----6-----7-----9-----2-2---------------------------------| 

Guitar 2 
e|---------------------------------------------------------------------------| 
B|---------------------------------------------------------------------------| 
G|-16~-------------13------16-16-13-16-9-----11-11-13-13-14-14-13-----11-----| 
D|---------------------x16----------------x8-----------------------x8-----x8-| 
A|-14~-------------11------14-14-11-14-7-----9--9--11-11-12-12-11-----9------| 
D|---------------------------------------------------------------------------| 

Guitar 2 
e|----------------------------------------------------------------------------------------------------------| 
B|----------------------------------------------------------------------------------------------------------| 
G|-16~-13~-18~-9------8-----16~-13~-18~-9------11----------9-----13-----16-16-16-16/18--11----9-9-9-9-11----| 
D|----------------x12----x8----------------x12----x4----------x8-----x4--------------------x8------------x4-| 
A|-14~-11~-16~-7------6-----14~-11~-16~-7------9-----------7-----11-----14-14-14-14/16--9-----7-7-7-7-9-----| 
D|----------------------------------------------------------------------------------------------------------| 

e|------------------------------------------------------------------------------------------------| 
B|-----------------------------5-5----9-9--------------9-9--------------9-9-------------9-9-------| 
G|-9-----8-8-8-8-9-9-9-16------6-6----9-9--6-6--8-8----9-9--8-8--6-6----9-9--6-6--8-8---9-9--8-8--| 
D|----x8-------------------x17-6-6----9-9--7-7--9-9----9-9--9-9--7-7----9-9--7-7--9-9---9-9--9-9--| 
A|-7-----6-6-6-6-7-7-7-14------------------7-7--9-9---------9-9--7-7---------7-7--9-9--------9-9--| 
D|------------------------------------------------------------------------------------------------| 
___________________________________________________________________________________________________________ 
~ - let note ring 
/ or \ - slide 
  

top 5 | waterparks
top rock'n roll
Outras músicas do artista letras do(a) Waterparks
Top cifras »Top artistas »
Petaxxon Comunicação Online
Cifras.com.br - Melhor e mais completo site de cifras e tablaturas do Brasil
Mais de 1 milhão de acordes de músicas cadastradas desde 2003
As informações contidas no nosso site são colaborações de seus usuários e podem conter erros, sendo assim, não nos responsabilizamos sobre nenhuma destas.
close
menos
mais
close
Cor dos acordes:

Cor da letra:

 

save
close
close
 
redimensionar