Cifras e Tablaturas
Waterparks

Waterparks

Royal

Cifras Cancelar Versão de Impressão
cifras

Waterparks - Royal

fixar na tela  
Exibindo: vídeo-aula ver clipes redimensionar

Tom:

  
Tuning: Drop D (DADGBe) 

Guitar 1 - Awsten Knight 
Guitar 2 - Geoff Wigington 

Intro 

Guitar 1 
e|-6~-----8~----4~---6~--------8~----4~-----|----2x-|-----|----2x-|-----|----4x-|----| 
B|-8~-----8~----4~---8~--------8~----4~-----|-------|-----|-6-----|-6---|-------|----| 
G|-8~-----8~----5~---8~--------8~----5~-----|-8-5---|-8-5-|---5---|---5-|-8-5---|-8--| 
D|--------10~---6~-------------10~---6~---8-|-----6-|-----|-----8-|-----|-----8-|----| 
A|-6~----------------6~---------------------|-------|-----|-------|-----|-------|----| 
D|------------------------------------------|-------|-----|-------|-----|-------|----| 

Guitar 2 
e|----------------------------------------------------------------------| 
B|----------------------------------------------------------------------| 
G|----------------------------------------------------------------------| 
D|--------------------------------------------------------5-----8-8-8-8-| 
A|--------------------------------------------6--x8-8--x8-3--x8-6-6-6-6-| 
D|--------------------------------------------6-----8-------------------| 
                                              *     *     *     * * * *                          

Chorus 

Guitar 1 
e|------------------------------------------------------|-----------------2x-| 
B|------------------------------------------------------|-4------------------| 
G|-5-----------3-----------5-----------3----------------|-5------------------| 
D|-5--x8-1-----3--x8-6-----5--x8-1-----3--x8-6-6-6-6-6--|-5--x8-6-----1------| 
A|-3-----1--x8-1-----6--x8-3-----1--x8-1-----6-6-6-6-6--|-3-----6--x8-1--x16-| 
D|-------1-----------6-----------1-----------6-6-6-6-6--|-------6-----1------| 

Guitar 2                  
e|-3-----------------------3----------------------------|-11---|-13---|-11---|-13---| 
B|-4-----------3-----------4-----------3----------------|---13-|---13-|---13-|---13-| 
G|-5-----------------------5----------------------------|------|------|------|------| 
D|-5--x8-5-----3--x8-10----5--x8-5-----3--x8-6-6-6-6-6--|------|------|------|------| 
A|-3-----1--x8-1-----6--x8-3-----1--x8-1-----6-6-6-6-6--|------|------|------|------| 
D|-------1-----------6-----------1-----------6-6-6-6-6--|---4x-|--12x-|---4x-|--12x-| 
                                                      ^This part is really hard to hear, they're probably 
                                                       playing something different than this 
verse 2                                                

Guitar 1 
e|---------------------------------------------------------------------| 
B|---------------------------------------------------------------------| 
G|-----------------------------8-8-8-------------5---------------------| 
D|-------------5-----8-8-8-8-8-8-8-8-6-----8-----5--x8-1-1-1-1---------| 
A|-6--x8-8--x8-3--x8-6-6-6-6-6-6-6-6-6--x8-8--x8-3-----1-1-1-1---------| 
D|-6-----8---------------------------6-----8-----------1-1-1-1---------| 
   *     *     *     **** 

Guitar 2 
e|-----------------------------------------------3-------------6---6---| 
B|-----------------------------------------------4---------------------| 
G|-----------------------------8-8-8-------------5-----8-8-8-8---8---8-| 
D|-------------5-----8-8-8-8-8-8-8-8-10----12----5--x8-8-8-8-8---------| 
A|-6--x8-8--x8-3--x8-6-6-6-6-6-6-6-6-6--x8-8--x8-3-----6-6-6-6---------| 
D|-6-----8---------------------------6-----8---------------------------| 
   *     *     *     * * * * 


Chorus 

Guitar 1 
e|-----------------------------------------------------|-----------------2x-| 
B|-----------------------------------------------------|-4------------------| 
G|-5-----------3-----------5-----------3---------------|-5------------------| 
D|-5--x8-1-----3--x8-6-----5--x8-1-----3--x8-6-6-6-6-6-|-5--x8-6-----1------| 
A|-3-----1--x8-1-----6--x8-3-----1--x8-1-----6-6-6-6-6-|-3-----6--x8-1--x16-| 
D|-------1-----------6-----------1-----------6-6-6-6-6-|-------6-----1------| 

Guitar 2 
e|-3-----------------------3---------------------------|-11---|-13---|-11---|-13---| 
B|-4-----------3-----------4-----------3---------------|---13-|---13-|---13-|---13-| 
G|-5-----------------------5---------------------------|------|------|------|------| 
D|-5--x8-5-----3--x8-10----5--x8-5-----3--x8-6-6-6-6-6-|------|------|------|------| 
A|-3-----1--x8-1-----6--x8-3-----1--x8-1-----6-6-6-6-6-|------|------|------|------| 
D|-------1-----------6-----------1-----------6-6-6-6-6-|---4x-|--12x-|---4x-|--12x-| 


Bridge (both guitars) 
e|----------------------------------------------| 
B|----------------------------------------------| 
G|--------5-5---3~-3---------------5-5---3------| 
D|-6------5-5---3~-3--x14---8------5-5---3--x16-| 
A|-6--x13-3-3-1-1~-1------1-6--x13-3-3-1-1------| 
D|-6----------1-----------1-6----------1--------| 


Break 

Guitar 1 
e|------------------|-11~-----/13~------| 
B|------------------|-------------------| 
G|----(silence)-----|--------------4x---| 
D|------------------|-------------------| 
A|------------------|-------------------| 
D|------------------|-------------------| 

Guitar 2 
e|------------------------------------4x-| 
B|-11-----11----------11-----11----------| 
G|------8------8-10-8------8------8-10-8-| 
D|---10-----10----------10-----10--------| 
A|---------------------------------------| 
D|---------------------------------------| 


Chorus 

Guitar 1 
e|-----------------------------------------------------|-----------------2x-| 
B|-----------------------------------------------------|-4------------------| 
G|-5-----------3-----------5-----------3---------------|-5------------------| 
D|-5--x8-1-----3--x8-6-----5--x8-1-----3--x8-6-6-6-6-6-|-5--x8-6-----1------| 
A|-3-----1--x8-1-----6--x8-3-----1--x8-1-----6-6-6-6-6-|-3-----6--x8-1--x16-| 
D|-------1-----------6-----------1-----------6-6-6-6-6-|-------6-----1------| 

Guitar 2 
e|-3-----------------------3---------------------------|-11---|-13---|-11---|-13---| 
B|-4-----------3-----------4-----------3---------------|---13-|---13-|---13-|---13-| 
G|-5-----------------------5---------------------------|------|------|------|------| 
D|-5--x8-5-----3--x8-10----5--x8-5-----3--x8-6-6-6-6-6-|------|------|------|------| 
A|-3-----1--x8-1-----6--x8-3-----1--x8-1-----6-6-6-6-6-|------|------|------|------| 
D|-------1-----------6-----------1-----------6-6-6-6-6-|---4x-|--12x-|---4x-|--12x-| 


Outro 

Guitar 1 
e|-----------------2x-| 
B|--------------------| 
G|-5------------------| 
D|-5--x8-6-----1------| 
A|-3-----6--x8-1--x16-| 
D|-------6-----1------| 

Guitar 2 
e|-11---|-13---|-11---|-13---| 
B|---13-|---13-|---13-|---13-| 
G|------|------|------|------| 
D|------|------|------|------| 
A|------|------|------|------| 
D|---4x-|--12x-|---4x-|--12x-| 

Outro Pt. 2 (guitar 2, clean tone): 
e|---------11----11--13-11--13-11--13--11----11----11--13-11--13-11--11------------| 
B|-----11----11----11-----11-----11------11----11----11-----11-----11--11~---------| 
G|-12------------------------------------------------------------------------------| 
D|---13--13----13--------------------13----13----13--------------------------------| 
A|---------------------------------------------------------------------------------| 
D|---------------------------------------------------------------------------------| 


************************************ 

| x  Dead note 
| ~  Vibrato 
| /  Slide up 

************************************ 
  

top 5 | waterparks
top rock'n roll
Outras músicas do artista letras do(a) Waterparks
Top cifras »Top artistas »
Petaxxon Comunicação Online
Cifras.com.br - Melhor e mais completo site de cifras e tablaturas do Brasil
Mais de 1 milhão de acordes de músicas cadastradas desde 2003
As informações contidas no nosso site são colaborações de seus usuários e podem conter erros, sendo assim, não nos responsabilizamos sobre nenhuma destas.
close
menos
mais
close
Cor dos acordes:

Cor da letra:

 

save
close
close
 
redimensionar