Cifras e Tablaturas
We Are Monarchy

We Are Monarchy

How Do You Turn This On

Cifras Cancelar Versão de Impressão Print

We Are Monarchy - How Do You Turn This On

Tom:

  • 0:00 / 0:00
  			

Guitar 1 Main Riff 

e|-------------------------| 
B|-------------------------| 
G|-------------------------| 
D|-------------------------| 
A|-------2-------2---------| 
E|---4-4---4-4-4---4-------| 

Chorus  

e|------------------------------------------------| 
B|------------------------------------------------| 
G|--6--------8------------------------------------| 
D|--6--(x8)--8--(x8)--6-6-6-6-6-6-6---------------| 
A|--4--------6--------6-6-6-6-6-6-6--(x2)---------| 
E|--------------------4-4-4-7-4-7-4---------------| 
                       
e|------------------------------------------------| 
B|------------------------------------------------| 
G|--6--------8--------11-----------11-------------| 
D|--6--(x8)--8--(x8)--11-----------11-(X8)--------| 
A|--4--------6--------9------------9--------------| 
E|--------------------LET IT RING-----------------| 

Return To Main Riff  

Chords from the solo 

e|------------------------------------------------| 
B|------------------------------------------------| 
G|------------------------------------------------| 
D|----6-6-6-6-6-4-------x-x-x-9-------------------| 
A|----6-6-6-6-6-4--(x3)-x-x-x-9-------------------| 
E|----4-4-4-4-4-2-------x-x-x-7-------------------| 

Outro 

e|-----------------------------------| 
B|-----------------------------------| 
G|-----------------------------------| 
D|--6-------x-x-x-9------------------| 
A|--6-(x24)-x-x-x-9------------------| 
E|--4-------x-x-x-7------------------| 

Guitar 2 

intro and verse 

e|---7--7-------4--4---------| 
B|---7--7-------4--4---------| 
G|---------------------------|  
D|---------------------------| 
A|---------------------------| 
E|---------------------------| 

Chorus  

e|-------4--------6--------4------| 
B|---------5--------7------4------| 
G|-----6--------8----------4------|  
D|---6--------8------------6------| 
A|-------------------------6------| 
E|-------------------------4------| 

e|-------4--------6---------------------------| 
B|---------5--------7-------------------------| 
G|-----6--------8----------11-----11----------|  
D|---6--------8------------11-----11-(X8)-----| 
A|-------------------------9------9-----------| 
E|-------------------------LET IT RING--------| 

Repeat  

Solo 

e|----------------------------------------| 
B|---13 with speed picking and bend ------| 
G|----------------------------------------|  
D|----------------------------------------| 
A|----------------------------------------| 
E|----------------------------------------| 

Outro 

Listen to the song to get the strum 
e|-------------------------------16-------| 
B|---13--15--16--11--13--15--16-----------| 
G|----------------------------------------|  
D|----------------------------------------| 
A|----------------------------------------| 
E|----------------------------------------| 


************************************ 

| /   slide up 
| \   slide down 
| h   hammer-on 
| p   pull-off 
| ~   vibrato 
| +   harmonic 
| x   Mute note 
| b   Bend 
| pb  Pre-bend 
| br  Bend release 
| pbr Pre-bend release 
| brb Bend release bend 

************************************ 
    	

enviado porenviado por: tamamoreira
cifra enviadaCorrigida por: sem correções
logo top cifrasComente
ico música do artistaMúsicas deste artista
ico curtiuCurtiu?
ico destaqueDestaque
Petaxxon Comunicação Online

Cifras.com.br - Melhor e mais completo site de cifras e tablaturas do Brasil Mais de 1 milhão de acordes de músicas cadastradas desde 2003
As informações contidas no nosso site são colaborações de seus usuários e podem conter erros, sendo assim, não nos responsabilizamos sobre nenhuma destas.

close
menos
mais
close
Cor dos acordes:

Cor da letra:

close
Alinhar acordes a direita Alinhar acordes a esquerda Alinhar acordes em baixo Alinhar acordes no topo
close
  Mostrar todos os acordes Esconder acordes muito fáceis Esconder acordes fáceis Esconder acordes intermediários
redimensionar
glossário