Cifras e Tablaturas
We Live No More

We Live No More

Efemeria

Cifras Cancelar Versão de Impressão
cifras

We Live No More - Efemeria

fixar na tela  
Exibindo: vídeo-aula ver clipes redimensionar

Tom:

  
Intro 
Riff I 
e|----------------------|---------------------|-----------------|-----------------| 
B|----------------------|---------------------|-----------------|-----------------| 
G|-------9-------9----9-|-------9------5----9-|-----4-----4---4-|-----4-----5---4-| 
D|-10-10---10-10---10---|-10-10---10-7---10---|-5-5---5-5---5---|-5-5---5-7---5---| 
A|----------------------|---------------------|-----------------|-----------------| 
E|----------------------|---------------------|-----------------|-----------------| 

e|-----------------|-----------------|-----------------|-----------------| 
B|-----------------|-----------------|-----------------|-----------------| 
G|-----2-----2---2-|-----2-----4---5-|-----2-----2---2-|-----4-----4---4-| 
D|-3-3---3-3---3---|-3-3---3-5---7---|-3-3---3-3---3---|-5-5---5-5---5---| 
A|-----------------|-----------------|-----------------|-----------------| 
E|-----------------|-----------------|-----------------|-----------------| 

Verse 
Riff II 
e|--------------|-----------|-----------|-------| 
B|--------------|-----------|-----------|-------| 
G|--9----9-5--9-|-4---4-5-4-|-2---4-5-4-|-2--4--| 
D|-10---10-7-10-|-5---5-7-5-|-3---5-7-5-|-3--5--| 
A|--------------|-----------|-----------|-------| 
E|--------------|-----------|-----------|-------| 

Chorus 
Riff I 
e|----------------------|---------------------|-----------------|-----------------| 
B|----------------------|---------------------|-----------------|-----------------| 
G|-------9-------9----9-|-------9------5----9-|-----4-----4---4-|-----4-----5---4-| 
D|-10-10---10-10---10---|-10-10---10-7---10---|-5-5---5-5---5---|-5-5---5-7---5---| 
A|----------------------|---------------------|-----------------|-----------------| 
E|----------------------|---------------------|-----------------|-----------------| 

e|-----------------|-----------------|-----------------|-----------------| 
B|-----------------|-----------------|-----------------|-----------------| 
G|-----2-----2---2-|-----2-----4---5-|-----2-----2---2-|-----4-----4---4-| 
D|-3-3---3-3---3---|-3-3---3-5---7---|-3-3---3-3---3---|-5-5---5-5---5---| 
A|-----------------|-----------------|-----------------|-----------------| 
E|-----------------|-----------------|-----------------|-----------------| 

Outro 
Riff I 
e|----------------------|---------------------|-----------------|-----------------| 
B|----------------------|---------------------|-----------------|-----------------| 
G|-------9-------9----9-|-------9------5----9-|-----4-----4---4-|-----4-----5---4-| 
D|-10-10---10-10---10---|-10-10---10-7---10---|-5-5---5-5---5---|-5-5---5-7---5---| 
A|----------------------|---------------------|-----------------|-----------------| 
E|----------------------|---------------------|-----------------|-----------------| 

e|-----------------|-----------------|-----------------|-----------------| 
B|-----------------|-----------------|-----------------|-----------------| 
G|-----2-----2---2-|-----2-----4---5-|-----2-----2---2-|-----4-----4---4-| 
D|-3-3---3-3---3---|-3-3---3-5---7---|-3-3---3-3---3---|-5-5---5-5---5---| 
A|-----------------|-----------------|-----------------|-----------------| 
E|-----------------|-----------------|-----------------|-----------------| 
  

top 5 | we live no more
top rock'n roll
Outras músicas do artista letras do(a) We Live No More
Top cifras »Top artistas »
Petaxxon Comunicação Online
Cifras.com.br - Melhor e mais completo site de cifras e tablaturas do Brasil
Mais de 1 milhão de acordes de músicas cadastradas desde 2003
As informações contidas no nosso site são colaborações de seus usuários e podem conter erros, sendo assim, não nos responsabilizamos sobre nenhuma destas.
close
menos
mais
close
Cor dos acordes:

Cor da letra:

 

save
close
close
 
redimensionar