Cifras e Tablaturas
We Live No More

We Live No More

Insomnia

Cifras Cancelar Versão de Impressão
cifras

We Live No More - Insomnia

fixar na tela  
Exibindo: vídeo-aula ver clipes redimensionar
  
Intro 

Riff I 
D#|----------------------------|-----------------------| 
A#|----------------------------|-----------------------| 
F#|----------------------------|-----------------------| 
C#|----------------------------|-----------------------| 
G#|----------------------------|-----------------------| 
C#|-0-00-2p0-00-3p0-00-2p0-3p0-|-0-00-2p0-00-3p0-00-23-| 
PM    ..     ..     ..             ..     ..     .. 

D#|----------------------------|-------------------------| 
A#|----------------------------|-------------------------| 
F#|----------------------------|-------------------------| 
C#|----------------------------|-------------------------| 
G#|----------------------------|-------------------------| 
C#|-5-55-7p5-55-8p5-55-7p5-8p5-|-3-33-5p3-33-2-22-3p2-00-| 
PM    ..     ..     ..             ..          ..     .. 

Riff II 
D#|----------------------------|-----------------------| 
A#|----------------------------|-----------------------| 
F#|----------------------------|-----------------------| 
C#|-0----2p0----3p0----2p0-3p0-|-0----2p0----3p0----23-| 
G#|-0----2p0----3p0----2p0-3p0-|-0----2p0----3p0----23-| 
C#|-0-00-2p0-00-3p0-00-2p0-3p0-|-0-00-2p0-00-3p0-00-23-| 
PM    ..     ..     ..             ..     ..     .. 

D#|----------------------------|-------------------------| 
A#|----------------------------|-------------------------| 
F#|----------------------------|-------------------------| 
C#|-5----7p5----8p5----7p5-8p5-|-3----5p3----2----3p2----| 
G#|-5----7p5----8p5----7p5-8p5-|-3----5p3----2----3p2----| 
C#|-5-55-7p5-55-8p5-55-7p5-8p5-|-3-33-5p3-33-2-22-3p2-00-| 
PM    ..     ..     ..             ..     ..   ..     .. 

Verse 

D#|-------------|-------------|-------------|-------------| 
A#|-------------|-------------|-------------|-------------| 
F#|-------------|-------------|-------------|-------------| 
C#|-0--00-00-00-|-0--00-00-00-|-5--55-55-55-|-3--33-33-55-| 
G#|-0--00-00-00-|-0--00-00-00-|-5--55-55-55-|-3--33-33-55-| 
C#|-00000-00000-|-00000-00000-|-55555-55555-|-33333-33355-| 
PM   ..     .      ..     .      ..     .      ..     . 

Chorus 

Riff I 
D#|----------------------------|-----------------------| 
A#|----------------------------|-----------------------| 
F#|----------------------------|-----------------------| 
C#|----------------------------|-----------------------| 
G#|----------------------------|-----------------------| 
C#|-0-00-2p0-00-3p0-00-2p0-3p0-|-0-00-2p0-00-3p0-00-23-| 
PM    ..     ..     ..             ..     ..     .. 

D#|----------------------------|-------------------------| 
A#|----------------------------|-------------------------| 
F#|----------------------------|-------------------------| 
C#|----------------------------|-------------------------| 
G#|----------------------------|-------------------------| 
C#|-5-55-7p5-55-8p5-55-7p5-8p5-|-3-33-5p3-33-2-22-3p2-00-| 
PM    ..     ..     ..             ..          ..     .. 

Riff II 
D#|----------------------------|-----------------------| 
A#|----------------------------|-----------------------| 
F#|----------------------------|-----------------------| 
C#|-0----2p0----3p0----2p0-3p0-|-0----2p0----3p0----23-| 
G#|-0----2p0----3p0----2p0-3p0-|-0----2p0----3p0----23-| 
C#|-0-00-2p0-00-3p0-00-2p0-3p0-|-0-00-2p0-00-3p0-00-23-| 
PM    ..     ..     ..             ..     ..     .. 

D#|----------------------------|-------------------------| 
A#|----------------------------|-------------------------| 
F#|----------------------------|-------------------------| 
C#|-5----7p5----8p5----7p5-8p5-|-3----5p3----2----3p2----| 
G#|-5----7p5----8p5----7p5-8p5-|-3----5p3----2----3p2----| 
C#|-5-55-7p5-55-8p5-55-7p5-8p5-|-3-33-5p3-33-2-22-3p2-00-| 
PM    ..     ..     ..             ..     ..   ..     ..  

Music video: 
https://youtu.be/iwbaHu1S_04 



************************************ 

| p   Pull-off 
| PM  Palm mute 
  

************************************ 
  

top 5 | we live no more
top rock'n roll
Outras músicas do artista letras do(a) We Live No More
Top cifras »Top artistas »
Petaxxon Comunicação Online
Cifras.com.br - Melhor e mais completo site de cifras e tablaturas do Brasil
Mais de 1 milhão de acordes de músicas cadastradas desde 2003
As informações contidas no nosso site são colaborações de seus usuários e podem conter erros, sendo assim, não nos responsabilizamos sobre nenhuma destas.
close
menos
mais
close
Cor dos acordes:

Cor da letra:

 

save
close
close
 
redimensionar