Cifras e Tablaturas
We The Kings

We The Kings

Jennys Song

Cifras Cancelar Versão de Impressão
cifras

We The Kings - Jennys Song

fixar na tela  
Exibindo: vídeo-aula ver clipes redimensionar
  
Intro 
                      C          G              C          G         
e|------------------------------------------------------------------| 
B|-------------------5S---5S--5S--3S-------------5S---5S---5S---3S--| 
G|-------------------5S---5S--5S--4S-------------5S---5S---5S---4S--| 
D|-------------------5S---5S--5S--5S-------------5S---5S---5S---5S--| 
A|-----------------3---------------------------3--------------------| 
E|-3-3-3-3p-3h-5h-------0---1---3-----3p-3h-5h------0----1----3-----| 
                          Oohh... 


Verse 
             C            G            C    G 
e|------------------------------------------------------------------| 
B|-------------S---S---S---S---S---S---5S---3S----------------------| 
G|-------------S---S---S---S---S---S---5S---4S----------------------| 
D|-------------S---S---S---S---S---S---5S---5S----------------------| 
A|-----------3---------------3--------------------------------------| 
E|-3p-3h-5h------0---1---3-------0---1----3-------------------------| 
             
             C            G              C              G 
e|------------------------------------------------------------------| 
B|------------5S---5S--5S--3S-------------5S---5S---5S---3S---------| 
G|------------5S---5S--5S--4S-------------5S---5S---5S---4S---------| 
D|------------5S---5S--5S--5S-------------5S---5S---5S---5S---------| 
A|-----------3---------------------------3--------------------------| 
E|-3p-3h-5h------3----1---3-----3p-3h-5h-----3-----1----3-----------| 



PreChorus 
   Dm                G                 Dm                  G(Strum) 
e|---------------------------------------------------------3---------------| 
B|---6S--6S--6S--6S----3s--3s--3s--3s-----6s--6s--6s--6s---3---------------| 
G|---7S--7S--7S--7S----4s--4s--4s--4s-----7s--7s--7s--7s---4---------------| 
D|---7S--7S--7S--7S----5s--5s--5s--5s-----7s--7s--7s--7s---5---------------| 
A|-5-----------------------------------5-------------------3---------------| 
E|-------------------3-------------------------------------3---------------| 


Chorus 
             C            G              C              G 
e|-------------------------------------------------------------------| 
B|------------5S---5S--5S--3S-------------5S---5S---5S---3S----------| 
G|------------5S---5S--5S--4S-------------5S---5S---5S---4S----------| 
D|------------5S---5S--5S--5S-------------5S---5S---5S---5S----------| 
A|-----------3---------------------------3---------------------------| 
E|-3p-3h-5h------0----1---3-----3p-3h-5h-----0-----1----3------------| 
                
             C            G              C              G 
e|-------------------------------------------------------------------| 
B|------------5S---5S--5S--3S-------------5S---5S---5S---3S----------| 
G|------------5S---5S--5S--4S-------------5S---5S---5S---4S----------| 
D|------------5S---5S--5S--5S-------------5S---5S---5S---5S----------| 
A|-----------3---------------------------3---------------------------| 
E|-3p-3h-5h------0----1---3-----3p-3h-5h-----0-----1----3------------| 


Bridge 

   Dm                G                 C                   F 
e|---------------------------------------------------------------------------| 
B|---6S--6S--6S--6S----3s--3s--3s--3s-----5s--5s--5s--5s-----1s--1s--1s--1s--| 
G|---7S--7S--7S--7S----4s--4s--4s--4s-----5s--5s--5s--5s-----2s--2s--2s--2s--| (Repeat) 
D|---7S--7S--7S--7S----5s--5s--5s--5s-----5s--5s--5s--5s-----3s--3s--3s--3s--|  (Once) 
A|-5-------------------------------------------------------------------------| 
E|-------------------3-----------------3------------------1------------------| 

   Dm                G (Strum) 
e|-------------------3--| 
B|---6S--6S--6S--6S--3--| 
G|---7S--7S--7S--7S--4--| 
D|---7S--7S--7S--7S--5--| 
A|-5-----------------5--| 
E|-------------------3--| 

Outro and Instrumental 
             C            G              C              G 
e|-------------------------------------------------------------------| 
B|------------5S---5S--5S--3S-------------5S---5S---5S---3S----------| 
G|------------5S---5S--5S--4S-------------5S---5S---5S---4S----------| 
D|------------5S---5S--5S--5S-------------5S---5S---5S---5S----------| 
A|-----------3---------------------------3---------------------------| 
E|-3p-3h-5h------0----1---3-----3p-3h-5h-----0-----1----3------------| 

~~~~~~~~~~~~~~~~~~~~~~~~~~~~~~~~~~~~~~~~~~~~~~~~~~~~~~~~~~~~~~~~~~~~~~ 



************************************ 

| h  Hammer-on 
| p  Pull-off  

************************************ 
  

cifra enviadasem correções
enviado porenviada por:marcnagel
top 5 | we the kings
top punk rock
Outras músicas do artista letras do(a) We The Kings
Top cifras »Top artistas »
Petaxxon Comunicação Online
Cifras.com.br - Melhor e mais completo site de cifras e tablaturas do Brasil
Mais de 1 milhão de acordes de músicas cadastradas desde 2003
As informações contidas no nosso site são colaborações de seus usuários e podem conter erros, sendo assim, não nos responsabilizamos sobre nenhuma destas.
close
menos
mais
close
Cor dos acordes:

Cor da letra:

 

save
close
close
 
redimensionar