Cifras e Tablaturas
Wednesday 13

Wednesday 13

Condolences

Cifras Cancelar Versão de Impressão
cifras

Wednesday 13 - Condolences

fixar na tela  
Exibindo: vídeo-aula ver clipes redimensionar

Tom:

  
Intro: 


D|----------------------------------------------------------| 
A|----------------------------------------------------------| 
F|----------------------------------------------------------| 
C|------8--7--0-------------------8--7--0-------------------| 
G|--0---8--7--0---0--0--0--0--0---8--7--0---0--0--0--0--0---| 
C|--0---8--7--0---0--0--0--0--0---8--7--0---0--0--0--0--0---| 
    .             .  .  .  .  .             .  .  .  .  . 


D|------------------------------------------------------------------| 
A|------------------------------------------------------------------| 
F|------------------------------------------------------------------| 
C|--8-8--7-7--3-3-3-3-3-3-3-3-3-3-3-3-8-8-7-7-2-2-2-2-2-2-2-2-2-2---| 
G|--8-8--7-7--3-3-3-3-3-3-3-3-3-3-3-3-8-8-7-7-2-2-2-2-2-2-2-2-2-2---| 
C|--8-8--7-7--3-3-3-3-3-3-3-3-3-3-3-3-8-8-7-7-2-2-2-2-2-2-2-2-2-2---|                                       


D|----------------------------------------------------------| 
A|----------------------------------------------------------| 
F|----------------------------------------------------------| 
C|------8--7--0-------------------8--7--0-------------------| 
G|--0---8--7--0---0--0--0--0--0---8--7--0---0--0--0--0--0---| 
C|--0---8--7--0---0--0--0--0--0---8--7--0---0--0--0--0--0---| 
    .             .  .  .  .  .             .  .  .  .  . 


D|------------------------------------------------------------------| 
A|------------------------------------------------------------------| 
F|------------------------------------------------------------------| 
C|--8-8--7-7--3-3-3-3-3-3-3-3-3-3-3-3-8-8-7-7-2-2-2-2-2-2-2-2-2-2---| 
G|--8-8--7-7--3-3-3-3-3-3-3-3-3-3-3-3-8-8-7-7-2-2-2-2-2-2-2-2-2-2---| 
C|--8-8--7-7--3-3-3-3-3-3-3-3-3-3-3-3-8-8-7-7-2-2-2-2-2-2-2-2-2-2---| 


D|----------------| 
A|----------------| 
F|----------------| 
C|------8--7--0---| 
G|--0---8--7--0---| 
C|--0---8--7--0---| 
    . 


Verse: 


D|------------------------------------------------------------------| 
A|------------------------------------------------------------------| 
F|--10--10--10-10-10-10-10--10-10-10-10\9-9--9--9-9--9-9-9--9-9-9---| 
C|--x---x---x--x--x--x--x---x--x--x--x--x-x--x--x-x--x-x-x--x-x-x---| 
G|--8---8---8--8--8--8--8---8--8--8--8-\7-7--7--7-7--7-7-7--7-7-7---| 
C|------------------------------------------------------------------| 


D|----------------------------------------------------------------------------------| 
A|----------------------------------------------------------------------------------| 
F|--9/12-12--12--12-12--12-12-12--12-12-12--12\10-10--10-10-10-10-10--10-10-10-10---| 
C|--x-x--x---x---x--x---x--x--x---x--x--x---x--x--x---x--x--x--x--x---x--x--x--x----| 
G|--7/10-10--10--10-10--10-10-10--10-10-10--10\8--8---8--8--8--8--8---8--8--8--8----| 
C|----------------------------------------------------------------------------------| 


D|------------------------------------------------------------------| 
A|------------------------------------------------------------------| 
F|--10--10--10-10-10-10-10--10-10-10-10\9-9--9--9-9--9-9-9--9-9-9---| 
C|--x---x---x--x--x--x--x---x--x--x--x--x-x--x--x-x--x-x-x--x-x-x---| 
G|--8---8---8--8--8--8--8---8--8--8--8-\7-7--7--7-7--7-7-7--7-7-7---| 
C|------------------------------------------------------------------| 


D|----------------------------------------------------------------------------------| 
A|----------------------------------------------------------------------------------| 
F|--9/12-12--12--12-12--12-12-12--12-12-12--12\10-10--10-10-10-10-10--10-10-10-10---| 
C|--x-x--x---x---x--x---x--x--x---x--x--x---x--x--x---x--x--x--x--x---x--x--x--x----| 
G|--7/10-10--10--10-10--10-10-10--10-10-10--10\8--8---8--8--8--8--8---8--8--8--8----| 
C|----------------------------------------------------------------------------------| 


D|------------------------------------------------------------------| 
A|------------------------------------------------------------------| 
F|--10--10--10-10-10-10-10--10-10-10-10\9-9--9--9-9--9-9-9--9-9-9---| 
C|--x---x---x--x--x--x--x---x--x--x--x--x-x--x--x-x--x-x-x--x-x-x---| 
G|--8---8---8--8--8--8--8---8--8--8--8-\7-7--7--7-7--7-7-7--7-7-7---| 
C|------------------------------------------------------------------| 


D|----------------------------------------------------------------------------------| 
A|----------------------------------------------------------------------------------| 
F|--9/12-12--12--12-12--12-12-12--12-12-12--12\10-10--10-10-10-10-10--10-10-10-10---| 
C|--x-x--x---x---x--x---x--x--x---x--x--x---x--x--x---x--x--x--x--x---x--x--x--x----| 
G|--7/10-10--10--10-10--10-10-10--10-10-10--10\8--8---8--8--8--8--8---8--8--8--8----| 
C|----------------------------------------------------------------------------------| 


Chorus: 


D|----------------------------------------------------------| 
A|----------------------------------------------------------| 
F|----------------------------------------------------------| 
C|------8--7--0-------------------8--7--0-------------------| 
G|--0---8--7--0---0--0--0--0--0---8--7--0---0--0--0--0--0---| 
C|--0---8--7--0---0--0--0--0--0---8--7--0---0--0--0--0--0---| 
    .             .  .  .  .  .             .  .  .  .  . 


D|------------------------------------------------------------------| 
A|------------------------------------------------------------------| 
F|------------------------------------------------------------------| 
C|--8-8--7-7--3-3-3-3-3-3-3-3-3-3-3-3-8-8-7-7-2-2-2-2-2-2-2-2-2-2---| 
G|--8-8--7-7--3-3-3-3-3-3-3-3-3-3-3-3-8-8-7-7-2-2-2-2-2-2-2-2-2-2---| 
C|--8-8--7-7--3-3-3-3-3-3-3-3-3-3-3-3-8-8-7-7-2-2-2-2-2-2-2-2-2-2---|                                       


D|----------------------------------------------------------| 
A|----------------------------------------------------------| 
F|----------------------------------------------------------| 
C|------8--7--0-------------------8--7--0-------------------| 
G|--0---8--7--0---0--0--0--0--0---8--7--0---0--0--0--0--0---| 
C|--0---8--7--0---0--0--0--0--0---8--7--0---0--0--0--0--0---| 
    .             .  .  .  .  .             .  .  .  .  . 


D|------------------------------------------------------------------| 
A|------------------------------------------------------------------| 
F|------------------------------------------------------------------| 
C|--8-8--7-7--3-3-3-3-3-3-3-3-3-3-3-3-8-8-7-7-2-2-2-2-2-2-2-2-2-2---| 
G|--8-8--7-7--3-3-3-3-3-3-3-3-3-3-3-3-8-8-7-7-2-2-2-2-2-2-2-2-2-2---| 
C|--8-8--7-7--3-3-3-3-3-3-3-3-3-3-3-3-8-8-7-7-2-2-2-2-2-2-2-2-2-2---| 


D|----------------| 
A|----------------| 
F|----------------| 
C|------8--7--0---| 
G|--0---8--7--0---| 
C|--0---8--7--0---| 
    . 


verse 2: 


D|------------------------------------------------------------------| 
A|------------------------------------------------------------------| 
F|--10--10--10-10-10-10-10--10-10-10-10\9-9--9--9-9--9-9-9--9-9-9---| 
C|--x---x---x--x--x--x--x---x--x--x--x--x-x--x--x-x--x-x-x--x-x-x---| 
G|--8---8---8--8--8--8--8---8--8--8--8-\7-7--7--7-7--7-7-7--7-7-7---| 
C|------------------------------------------------------------------| 


D|----------------------------------------------------------------------------------| 
A|----------------------------------------------------------------------------------| 
F|--9/12-12--12--12-12--12-12-12--12-12-12--12\10-10--10-10-10-10-10--10-10-10-10---| 
C|--x-x--x---x---x--x---x--x--x---x--x--x---x--x--x---x--x--x--x--x---x--x--x--x----| 
G|--7/10-10--10--10-10--10-10-10--10-10-10--10\8--8---8--8--8--8--8---8--8--8--8----| 
C|----------------------------------------------------------------------------------| 
                                                           

D|------------------------------------------------------------------------------------| 
A|------------------------------------------------------------------------------------| 
F|--10-------10-------10------9--------9--------9-------12--------12--------12--------| 
C|--x--------x--------x-------x--------x--------x-------x---------x---------x---------| 
G|--8--------8--------8-------7--------7--------7-------10--------10--------10--------| 
C|-----0--0-----0--0-----0-0-----0--0-----0--0-----0-0------0--0------0--0------0-0---| 
       .  .     .  .     . .     .  .     .  .     . .      .  .      .  .      . . 


D|--------------------------------| 
A|--------------------------------| 
F|--10-------10-------------------| 
C|--x--------x--------------------| 
G|--8--------8--------------------| 
C|-----0--0-----0--0-0--2h3p2-0---| 
       .  .     .  . . 


D|------------------------------------------------------------------------------------| 
A|------------------------------------------------------------------------------------| 
F|--10-------10-------10------9--------9--------9-------12--------12--------12--------| 
C|--x--------x--------x-------x--------x--------x-------x---------x---------x---------| 
G|--8--------8--------8-------7--------7--------7-------10--------10--------10--------| 
C|-----0--0-----0--0-----0-0-----0--0-----0--0-----0-0------0--0------0--0------0-0---| 
       .  .     .  .     . .     .  .     .  .     . .      .  .      .  .      . . 


D|---------------------------------| 
A|---------------------------------| 
F|--14--------14-------------------| 
C|--x---------x----------8--7--0---| 
G|--12--------12---------8--7--0---| 
C|------0--0------0--0---8--7--0---| 
        .  .      .  . 


D|----------------| 
A|----------------| 
F|----------------| 
C|------8--7--0---| 
G|--0---8--7--0---| 
C|--0---8--7--0---| 
    . 


Chorus 2: 


D|----------------------------------------------------------| 
A|----------------------------------------------------------| 
F|----------------------------------------------------------| 
C|------8--7--0-------------------8--7--0-------------------| 
G|--0---8--7--0---0--0--0--0--0---8--7--0---0--0--0--0--0---| 
C|--0---8--7--0---0--0--0--0--0---8--7--0---0--0--0--0--0---| 
    .             .  .  .  .  .             .  .  .  .  . 


D|------------------------------------------------------------------| 
A|------------------------------------------------------------------| 
F|------------------------------------------------------------------| 
C|--8-8--7-7--3-3-3-3-3-3-3-3-3-3-3-3-8-8-7-7-2-2-2-2-2-2-2-2-2-2---| 
G|--8-8--7-7--3-3-3-3-3-3-3-3-3-3-3-3-8-8-7-7-2-2-2-2-2-2-2-2-2-2---| 
C|--8-8--7-7--3-3-3-3-3-3-3-3-3-3-3-3-8-8-7-7-2-2-2-2-2-2-2-2-2-2---|                                       


D|----------------------------------------------------------| 
A|----------------------------------------------------------| 
F|----------------------------------------------------------| 
C|------8--7--0-------------------8--7--0-------------------| 
G|--0---8--7--0---0--0--0--0--0---8--7--0---0--0--0--0--0---| 
C|--0---8--7--0---0--0--0--0--0---8--7--0---0--0--0--0--0---| 
    .             .  .  .  .  .             .  .  .  .  . 


D|------------------------------------------------------------------| 
A|------------------------------------------------------------------| 
F|------------------------------------------------------------------| 
C|--8-8--7-7--3-3-3-3-3-3-3-3-3-3-3-3-8-8-7-7-2-2-2-2-2-2-2-2-2-2---| 
G|--8-8--7-7--3-3-3-3-3-3-3-3-3-3-3-3-8-8-7-7-2-2-2-2-2-2-2-2-2-2---| 
C|--8-8--7-7--3-3-3-3-3-3-3-3-3-3-3-3-8-8-7-7-2-2-2-2-2-2-2-2-2-2---| 


D|----------------| 
A|----------------| 
F|----------------| 
C|------8--7--0---| 
G|--0---8--7--0---| 
C|--0---8--7--0---| 
    . 


D|---------------------------------------------------------------------------------------------| 
A|---------------------------------------------------------------------------------------------| 
F|---------------------------------------------------------------------------------------------| 
C|--3--3--3--3--3--3--3-3-3--2--2--2--2--2--2--2-2-2--3--3--3--3--3--3--3-3-3--5--5--5--5--5---| 
G|--3--3--3--3--3--3--3-3-3--2--2--2--2--2--2--2-2-2--3--3--3--3--3--3--3-3-3--5--5--5--5--5---| 
C|--3--3--3--3--3--3--3-3-3--2--2--2--2--2--2--2-2-2--3--3--3--3--3--3--3-3-3--5--5--5--5--5---| 
                        . .                      . .                      . . 


Under Solo: 


D|----------------------------------------------------------| 
A|----------------------------------------------------------| 
F|----------------------------------------------------------| 
C|------8--7--0-------------------8--7--0-------------------| 
G|--0---8--7--0---0--0--0--0--0---8--7--0---0--0--0--0--0---| 
C|--0---8--7--0---0--0--0--0--0---8--7--0---0--0--0--0--0---| 
    .             .  .  .  .  .             .  .  .  .  . 


D|------------------------------------------------------------------| 
A|------------------------------------------------------------------| 
F|------------------------------------------------------------------| 
C|--8-8--7-7--3-3-3-3-3-3-3-3-3-3-3-3-8-8-7-7-2-2-2-2-2-2-2-2-2-2---| 
G|--8-8--7-7--3-3-3-3-3-3-3-3-3-3-3-3-8-8-7-7-2-2-2-2-2-2-2-2-2-2---| 
C|--8-8--7-7--3-3-3-3-3-3-3-3-3-3-3-3-8-8-7-7-2-2-2-2-2-2-2-2-2-2---|                                       


D|----------------------------------------------------------| 
A|----------------------------------------------------------| 
F|----------------------------------------------------------| 
C|------8--7--0-------------------8--7--0-------------------| 
G|--0---8--7--0---0--0--0--0--0---8--7--0---0--0--0--0--0---| 
C|--0---8--7--0---0--0--0--0--0---8--7--0---0--0--0--0--0---| 
    .             .  .  .  .  .             .  .  .  .  . 


D|------------------------------------------------------------------| 
A|------------------------------------------------------------------| 
F|------------------------------------------------------------------| 
C|--8-8--7-7--3-3-3-3-3-3-3-3-3-3-3-3-8-8-7-7-2-2-2-2-2-2-2-2-2-2---| 
G|--8-8--7-7--3-3-3-3-3-3-3-3-3-3-3-3-8-8-7-7-2-2-2-2-2-2-2-2-2-2---| 
C|--8-8--7-7--3-3-3-3-3-3-3-3-3-3-3-3-8-8-7-7-2-2-2-2-2-2-2-2-2-2---| 


D|----------------| 
A|----------------| 
F|----------------| 
C|------8--7--0---| 
G|--0---8--7--0---| 
C|--0---8--7--0---| 
    . 


D|------------------------------------------------------------------| 
A|------------------------------------------------------------------| 
F|--10--10--10-10-10-10-10--10-10-10-10\9-9--9--9-9--9-9-9--9-9-9---| 
C|--x---x---x--x--x--x--x---x--x--x--x--x-x--x--x-x--x-x-x--x-x-x---| 
G|--8---8---8--8--8--8--8---8--8--8--8-\7-7--7--7-7--7-7-7--7-7-7---| 
C|------------------------------------------------------------------| 


D|----------------------------------------------------------------------------------| 
A|----------------------------------------------------------------------------------| 
F|--9/12-12--12--12-12--12-12-12--12-12-12--12\10-10--10-10-10-10-10--10-10-10-10---| 
C|--x-x--x---x---x--x---x--x--x---x--x--x---x--x--x---x--x--x--x--x---x--x--x--x----| 
G|--7/10-10--10--10-10--10-10-10--10-10-10--10\8--8---8--8--8--8--8---8--8--8--8----| 
C|----------------------------------------------------------------------------------| 


D|------------------------------------------------------------------| 
A|------------------------------------------------------------------| 
F|--10--10--10-10-10-10-10--10-10-10-10\9-9--9--9-9--9-9-9--9-9-9---| 
C|--x---x---x--x--x--x--x---x--x--x--x--x-x--x--x-x--x-x-x--x-x-x---| 
G|--8---8---8--8--8--8--8---8--8--8--8-\7-7--7--7-7--7-7-7--7-7-7---| 
C|------------------------------------------------------------------| 


D|----------------------------------------------------------------------------------| 
A|----------------------------------------------------------------------------------| 
F|--9/12-12--12--12-12--12-12-12--12-12-12--12\10-10--10-10-10-10-10--10-10-10-10---| 
C|--x-x--x---x---x--x---x--x--x---x--x--x---x--x--x---x--x--x--x--x---x--x--x--x----| 
G|--7/10-10--10--10-10--10-10-10--10-10-10--10\8--8---8--8--8--8--8---8--8--8--8----| 
C|----------------------------------------------------------------------------------| 


Chorus 3: 


D|----------------------------------------------------------| 
A|----------------------------------------------------------| 
F|----------------------------------------------------------| 
C|------8--7--0-------------------8--7--0-------------------| 
G|--0---8--7--0---0--0--0--0--0---8--7--0---0--0--0--0--0---| 
C|--0---8--7--0---0--0--0--0--0---8--7--0---0--0--0--0--0---| 
    .             .  .  .  .  .             .  .  .  .  . 


D|------------------------------------------------------------------| 
A|------------------------------------------------------------------| 
F|------------------------------------------------------------------| 
C|--8-8--7-7--3-3-3-3-3-3-3-3-3-3-3-3-8-8-7-7-2-2-2-2-2-2-2-2-2-2---| 
G|--8-8--7-7--3-3-3-3-3-3-3-3-3-3-3-3-8-8-7-7-2-2-2-2-2-2-2-2-2-2---| 
C|--8-8--7-7--3-3-3-3-3-3-3-3-3-3-3-3-8-8-7-7-2-2-2-2-2-2-2-2-2-2---|                                       


D|----------------------------------------------------------| 
A|----------------------------------------------------------| 
F|----------------------------------------------------------| 
C|------8--7--0-------------------8--7--0-------------------| 
G|--0---8--7--0---0--0--0--0--0---8--7--0---0--0--0--0--0---| 
C|--0---8--7--0---0--0--0--0--0---8--7--0---0--0--0--0--0---| 
    .             .  .  .  .  .             .  .  .  .  . 


D|------------------------------------------------------------------| 
A|------------------------------------------------------------------| 
F|------------------------------------------------------------------| 
C|--8-8--7-7--3-3-3-3-3-3-3-3-3-3-3-3-8-8-7-7-2-2-2-2-2-2-2-2-2-2---| 
G|--8-8--7-7--3-3-3-3-3-3-3-3-3-3-3-3-8-8-7-7-2-2-2-2-2-2-2-2-2-2---| 
C|--8-8--7-7--3-3-3-3-3-3-3-3-3-3-3-3-8-8-7-7-2-2-2-2-2-2-2-2-2-2---| 


D|-------------| 
A|-------------| 
F|-------------| 
C|------8--7---| 
G|--0---8--7---| 
C|--0---8--7---| 
    . 


Outro: 


D|-------------------------------------------------------------------------| 
A|-------------------------------------------------------------------------| 
F|-------------------------------------------------------------------------| 
C|-------------------------------------------------------------------------| 
G|--0--0--0--0--0--0--8-8-8-8-7-7-7-7--0--0--0--0--0--0--8-8-8-8-7-7-7-7---| 
C|--0--0--0--0--0--0--8-8-8-8-7-7-7-7--0--0--0--0--0--0--8-8-8-8-7-7-7-7---| 
    .  .  .  .  .  .                   .  .  .  .  .  . 

D|-------------------------------------------------------------------------| 
A|-------------------------------------------------------------------------| 
F|-------------------------------------------------------------------------| 
C|-------------------------------------------------------------------------| 
G|--0--0--0--0--0--0--8-8-8-8-7-7-7-7--0--0--0--0--0--0--8-8-8-8-7-7-7-7---| 
C|--0--0--0--0--0--0--8-8-8-8-7-7-7-7--0--0--0--0--0--0--8-8-8-8-7-7-7-7---| 
    .  .  .  .  .  .                   .  .  .  .  .  . 

D|-------------------------------------------------------------------------| 
A|-------------------------------------------------------------------------| 
F|-------------------------------------------------------------------------| 
C|-------------------------------------------------------------------------| 
G|--0--0--0--0--0--0--8-8-8-8-7-7-7-7--0--0--0--0--0--0--8-8-8-8-7-7-7-7---| 
C|--0--0--0--0--0--0--8-8-8-8-7-7-7-7--0--0--0--0--0--0--8-8-8-8-7-7-7-7---| 
    .  .  .  .  .  .                   .  .  .  .  .  . 

D|--------------------------------------| 
A|--------------------------------------| 
F|--------------------------------------| 
C|--------------------------------------| 
G|--0--0--0--0--0--0--8-8-8-8-7-7-7-7---| 
C|--0--0--0--0--0--0--8-8-8-8-7-7-7-7---| 
    .  .  .  .  .  . 


------------- 

/ - Slide up 
\ - Slide down 
. - Palm mute 
h - Hammer on 
p - Pull-off 

------------- 
  

top 5 | wednesday 13
top punk rock
Outras músicas do artista letras do(a) Wednesday 13
Top cifras »Top artistas »
Petaxxon Comunicação Online
Cifras.com.br - Melhor e mais completo site de cifras e tablaturas do Brasil
Mais de 1 milhão de acordes de músicas cadastradas desde 2003
As informações contidas no nosso site são colaborações de seus usuários e podem conter erros, sendo assim, não nos responsabilizamos sobre nenhuma destas.
close
menos
mais
close
Cor dos acordes:

Cor da letra:

 

save
close
close
 
redimensionar