Cifras e Tablaturas
Weezer

Weezer

Beach Boys

Cifras Cancelar Versão de Impressão
cifras

Weezer - Beach Boys

fixar na tela  
Exibindo: vídeo-aula ver clipes redimensionar

Tom:

  
Intro 
e|--3-----5-----5---------| 
B|--3-----5-----5---------| 
G|--3-----5-----7-----10--| 
D|--5-----7-----7-----10--| 
A|--5-----7-----5------8--| 
E|--3-----5---------------| 

verse 1 
e|--3-----5-----5---------|--3-----5-----5-----------------| 
B|--3-----5-----5---------|--3-----5-----5-----------------| 
G|--3-----5-----7-----10--|--5-----7-----7-----10--x-x-10--| 
D|--5-----7-----7-----10--|--5-----7-----7-----10--x-x-10--| 
A|--5-----7-----5------8--|--5-----7-----5------8--x-x--8--| 
E|--3-----5---------------|--3-----5-----------------------| 

e|--3-----5-----5-----------------|--3-----5-----5---| 
B|--3-----5-----5-----------------|--3-----5-----5---| 
G|--5-----7-----7-----10----------|--5-----7-----5---| 
D|--5-----7-----7-----10-------10-|--5-----7-----5---| 
A|--5-----7-----5------8--8/12----|--5-----7-----5---| 
E|--3-----5-----------------------|--3-----5---------| 

Chorus 
e|------------------------------|------------------------------| 
B|------------------------------|------------------------------| 
G|-7/10--12/14-12--14\10--9--5--|-7/10--12/14-12--14\10--9--5--| 
D|------------------------------|------------------------------| 
A|------------------------------|------------------------------| 
E|------------------------------|------------------------------| 

verse 2 
e|-----------------------------------------------| 
B|-----------------------------------------------| 
G|-----------------------------------------------| 
D|-7-7-7--5-5-5----------------------------------| (x2) 
A|--------------8-8-8---8-8-8--------7-7---7-7---| 
E|----------------------------8-8--8----8------8-| 
             PM                  PM 

e|--3-----5-----5-----------------|--3-----5-----5---| 
B|--3-----5-----5-----------------|--3-----5-----5---| 
G|--5-----7-----7-----10----------|--5-----7-----5---| 
D|--5-----7-----7-----10-------10-|--5-----7-----5---| 
A|--5-----7-----5------8--8/12----|--5-----7-----5---| 
E|--3-----5-----------------------|--3-----5---------| 

Chorus 
e|------------------------------|------------------------------| 
B|------------------------------|------------------------------| 
G|-7/10--12/14-12--14\10--9--5--|-7/10--12/14-12--14\10--9--5--| 
D|------------------------------|------------------------------| 
A|------------------------------|------------------------------| 
E|------------------------------|------------------------------| 

Hook 
e|--3-----5-----5---------|-----------------------------------| 
B|--3-----5-----5---------|-----------------------------------| 
G|--3-----5-----7-----10--|-7/10--12/14-12--14\10--9h10p9--5--| 
D|--5-----7-----7-----10--|-----------------------------------| 
A|--5-----7-----5------8--|-----------------------------------| 
E|--3-----5---------------|-----------------------------------| 

Bridge 
e|--6-----5-----(8)--|--6-----5-----(8)--|--6-----5-----(8)--|--6-----5-----(8)--| 
B|--6-----6-----(8)--|--6-----5-----(8)--|--6-----5-----(8)--|--6-----5-----(8)--| 
G|--7-----7------9---|--7-----7------9---|--7-----7------9---|--7-----7------9---| 
D|--8-----7-----10---|--8-----7-----10---|--8-----7-----10---|--8-----7-----10---| 
A|--8-----5-----10---|--8-----5-----10---|--8-----5-----10---|--8-----5-----10---| 
E|--6------------8---|--6------------8---|--6------------8---|--6------------8---| 

Chorus 
e|------------------------------|------------------------------| 
B|------------------------------|------------------------------| 
G|-7/10--12/14-12--14\10--9--5--|-7/10--12/14-12--14\10--9--5--| 
D|------------------------------|------------------------------| 
A|------------------------------|------------------------------| 
E|------------------------------|------------------------------| 

Outro 
e|--3-----5-----5---------|-----------------------------------| 
B|--3-----5-----5---------|-----------------------------------| 
G|--3-----5-----7-----10--|-7/10--12/14-12--14\10--9h10p9--5--| 
D|--5-----7-----7-----10--|-----------------------------------| 
A|--5-----7-----5------8--|-----------------------------------| 
E|--3-----5---------------|-----------------------------------| 


***************************************** 

| x   Dead note 
| (n) Ghost note 
| h   Hammer-on 
| p   Pull-off 
| /   Slide up 
| \   Slide down 
| PM  Palm mute 

************************************ 
  

top 5 | weezer
top rock'n roll
Outras músicas do artista letras do(a) Weezer
Top cifras »Top artistas »
Petaxxon Comunicação Online
Cifras.com.br - Melhor e mais completo site de cifras e tablaturas do Brasil
Mais de 1 milhão de acordes de músicas cadastradas desde 2003
As informações contidas no nosso site são colaborações de seus usuários e podem conter erros, sendo assim, não nos responsabilizamos sobre nenhuma destas.
close
menos
mais
close
Cor dos acordes:

Cor da letra:

 

save
close
close
 
redimensionar