Cifras e Tablaturas
Cifras Cancelar Versão de Impressão
cifras

Wes Montgomery - Leila

fixar na tela  
Exibindo: vídeo-aula ver clipes redimensionar

Tom:

  Version from the album "Far Wes". 

Head 1 
e|----------10-8---6--5----3------|--------------------3------10-8-|--6--5---3---8----8---6----8----| 
B|----------8--7---6--6----5---1--|--1--3---4---4--3---3------8--7-|--6--6---5---10---10--7----6----| 
G|8--7------8--8---7--6----3---0--|--0------4---4------3------8--8-|--7--6---3---9----9---8----7----| 
D|----------8--7---5--5----5---2--|--2------4---4------3------8--7-|--5--5---5---10---10--9----7----| 
A|-----------------------------0--|--0------6---6------5-----------|--------------------------------| 
E|--------------------------------|--------------------3-----------|--------------------------------| 

Head 2 (guitar almost muted, saxophone rythm indicated by "x") 
Rythm-x-x-x-----x-x-x-x-----x-x-x-|x-----x-x-x-x-----x-x-x-x----x-x|-x-x------x---x-----------------| 
e|--------------------------------|--------------------------------|--------------------------------| 
B|--------------------------------|--------------------------------|---------------------------6-7-8| 
G|--------------------8-----------|--------------------------------|--------------------------------| 
D|--------------------8-----------|--------------------------------|---------------------------3-4-5| 
A|--------------------10----------|10----------8-----------5----8--|-7------------7-----------------| 
E|--------------------------------|--------------------------------|-----------8--------------------| 

Head 1 
e|----------10-8---6--5----3------|--------------------3------10-8-|--6--5---3---8----8---6----8----| 
B|-9-7------8--7---6--6----5---1--|--1--3---4---4--3---3------8--7-|--6--6---5---10---10--7----6----| 
G|----------8--8---7--6----3---0--|--0------4---4------3------8--8-|--7--6---3---9----9---8----7----| 
D|-6-4------8--7---5--5----5---2--|--2------4---4------3------8--7-|--5--5---5---10---10--9----7----| 
A|-----------------------------0--|--0------6---6------5-----------|--------------------------------| 
E|--------------------------------|--------------------3-----------|--------------------------------| 

Head 2 (as above, almost muted) 
e|--------------------------------|--------------------------------|--------------------------------| 
B|--------11----------------------|--------------------------------|----------4---1-----------------| 
G|--------10----------8-----------|--------------------------------|----------3---2-----------------| 
D|--------11----------8-----------|--------------------------------|----------5---2-----------------| 
A|--------11----------10----------|10---------(x)----------8-------|--7-------3--(1)----------------| 
E|--------------------------------|--------------------------------|--------------------------------| 

Solo 1 
e|--------------------------------|--------------------------------|----------------------------13--| 
B|-----8--------------------------|--------------------------------|------------------------1113----| 
G|-------10------------------13/14|-12-----------------------------|-----7-8---7----7-8-1011--------| 
D|--8------11/12-12-12------------|----15-----------------8--------|---8-----9---10-----------------| 
A|10-----------------------12-----|-----------------8-1011--108----|-10-----------------------------| 
E|-----------------------13-------|-------1315----10------------11-|--------------------------------| 

e|--------------------------------|-------------------7-----7------|--------------------------------| 
B|--------------------------------|---------------8-10----8---108--|----8---------------------5-8-5-| 
G|13/14-14-14-----14\13\12-10-----|109-7------8-10------9----------|--8---108---------------5-------| 
D|------------------------------12|--------------------------------|10--------108---------7---------| 
A|----------------------------12--|--------------------------------|--------------10-9-8------------| 
E|--------------------------------|--------------------------------|--------------------------------| 

                                             Back to Head 1 
e|-------------10-131210----------|----------10-8---6--5----3------|--------------------3------10-8-| 
B|------------11-------131110/1110|8-7-------8--7---6--6----5---1--|--1--3---4---4--3---3------8--7-| 
G|5---7------10-------------------|----8-7---8--8---7--6----3---0--|--0------4---4------3------8--8-| 
D|--7-------12--------------------|----------8--7---5--5----5---2--|--2------4---4------3------8--7-| 
A|--------12----------------------|-----------------------------0--|--0------6---6------5-----------| 
E|--------------------------------|--------------------------------|--------------------3-----------| 

                                   Head 2 (as before, almost muted) 
e|--6--5---3---8----8---6----8----|--------------------------------|--------------------------------| 
B|--6--6---5---10---10--7----6----|--------11----------------------|--------------------------------| 
G|--7--6---3---9----9---8----7----|--------10----------8-----------|8-------------------------------| 
D|--5--5---5---10---10--9----7----|--------11----------8-----------|8-------------------------------| 
A|--------------------------------|--------11----------10----------|10---------(x)----------8-------| 
E|--------------------------------|--------------------------------|--------------------------------| 

                                   Solo 2 
e|--------------------------------|--------------------------------|--------------------------------| 
B|------------4---1---------------|--------------------------------|--------------------------------| 
G|------------3---2---------------|--------------------------------|--------------------------------| 
D|------------5---2---------------|--------12----------------------|-10-13/14-10-7------------------| 
A|-----7------3--(1)--------------|--11/12---12--11/12--------11/12|---------------87---6----------8| 
E|--------------------------------|13----------13------------------|------------------8----------10-| 

e|--------------------------------|--------------------8-6--4------|----4--------------------------8| 
B|-------------8------------------|------------------8--------4----|--4---7-5-6-4----------------10-| 
G|---------9-10--9----------------|6-8-6-----5-6-8-9---------------|5-------------6----------7-10---| 
D|-8---------------10-10-10-------|------8----------------------6--|----------------6------8--------| 
A|---8-7--------------------------|--------------------------------|---------------------10---------| 
E|--------------------------------|--------------------------------|--------------------------------| 


e|--------------------------------|--------------------------------|--------------------------------| 
B|-11-----------------------------|-----------------------9/10-10--|9/10-10--9/10-10--8/5-----------| 
G|---10---------------------------|-------------------1012---------|---------------------5----------| 
D|-----11/10-10-----------1012-13\|12\10--12---10---12-------------|----------------------7-7-------| 
A|-------------101112---12--------|-----12---12--13----------------|--------------------------------| 
E|--------------------------------|--------------------------------|--------------------------------| 

e|--------------------------------|--------------------------------|------------------------11------| 
B|--8-7----------------6----------|--------------------------------|--------------------8-11--9--8--| 
G|9-----9-10----------7-9--6------|------------------------7-9-10--|----8-----------8-9---------9-10| 
D|----------8-------78-------8----|------------------7-8-10--------|1011----8---1011----------------| 
A|------------10-10------------9-7|-------7-107-8-10---------------|--------------------------------| 
E|--------------------------------|-----8--------------------------|--------------------------------| 

e|----------------------8-7-6-10--|--------------------------------|--------------------------------| 
B|-9----------------6-9---------10|--------------------------------|--------------------------------| 
G|---9/10-----8---6---------------|10----13/14\13------------------|--------------------------------| 
D|--------6-8---------------------|--12-----------14-11------------|------(10)----------------------| 
A|--------------------------------|----13---------------13-15-13-11|/12----10-7--8-----------—------| 
E|--------------------------------|--------------------------------|----8---------------------------| 

Transition 
e|-----------------9/10-8---------|------5-8--6-------6---------5/6|-5----2--3---4-5-----------12-10| 
B|7---8--------8-11----------6----|----6----------------8----------|------3--4---5-6-------1013-----| 
G|7---8----7-8---------------7----|6-7--------------------8-7-5----|------2--3---4-5---9-10---------| 
D|7---8----------------------7----|--------------------------------|------4--5---6-7----------------| 
A|9-—-10---------------------8----|--------------------------------|------2--3---4-5----------------| 
E|7---8----------------------6----|--------------------------------|--------------------------------| 

e|-------------7-10-8-------9-----|-----------8--------------------| 
B|-----------8----------------11--|-------------10-----------------| 
G|-------8-9--------------------11|8-10-----------107-9------------| 
D|--------------------------------|--------------------------------| 
A|--------------------------------|--------------------------------| 
E|--------------------------------|--------------------------------| 

Head 1 (it opens with 2 chords this time) 
e|----------10-8---6--5----3------|--------------------3------10-8-|--6--5---3---8----8---6----8----| 
B|4--3------8--7---6--6----5---1--|--1--3---4---4--3---3------8--7-|--6--6---5---10---10--7----6----| 
G|4--3------8--8---7--6----3---0--|--0------4---4------3------8--8-|--7--6---3---9----9---8----7----| 
D|4--3------8--7---5--5----5---2--|--2------4---4------3------8--7-|--5--5---5---10---10--9----7----| 
A|6--5-------------------------0--|--0------6---6------5-----------|--------------------------------| 
E|--------------------------------|--------------------3-----------|--------------------------------| 

Finale 
e|------------------8-----8---8---|--8-----8---8-----8-----8---8---|--------4-----------------------| 
B|7--8-----8--8-----10----10--10--|--8-----8---8-----9-----9---9---|--6-------6-----------4--5------| 
G|7--8-----8--8-----9-----9---9---|--8-----8---8-----8-----8---8---|--6---------6-3-5-----4--5------| 
D|7--8-----8--8-----8-----8---8---|--7-----7---7-----6-----6---6---|--6-------------------6--7------| 
A|9--10----10-10------------------|------------------6-----6---6---|--8-------------------7--8------| 
E|7--8-----8--8-------------------|--------------------------------|--6-----------------------------| 
  

top 5 | wes montgomery
top rock'n roll
Outras músicas do artista letras do(a) Wes Montgomery
Top cifras »Top artistas »
Petaxxon Comunicação Online
Cifras.com.br - Melhor e mais completo site de cifras e tablaturas do Brasil
Mais de 1 milhão de acordes de músicas cadastradas desde 2003
As informações contidas no nosso site são colaborações de seus usuários e podem conter erros, sendo assim, não nos responsabilizamos sobre nenhuma destas.
close
menos
mais
close
Cor dos acordes:

Cor da letra:

 

save
close
close
 
redimensionar