Cifras e Tablaturas
Wild Nothing

Wild Nothing

Disappear Always

Cifras Cancelar Versão de Impressão
cifras

Wild Nothing - Disappear Always

fixar na tela  
Exibindo: vídeo-aula ver clipes redimensionar

Tom:

  
Intro x2 
  Lead           x2 
e|-----------------------------------|-----------------------------------| 
B|---------------------7-----7-------|-----------------------------------| 
G|-----7-----7-------4-----4---4---4-|-----4-----4---------0-----0-------| 
D|---5-----5-------5-----5-------5---|---4-----4---------2-----2---2---2-| 
A|-7-----7-----7---------------------|-5-----5-----5---3-----3-------3---| 
E|-----------------------------------|-----------------------------------| 
  Rhythm (listen to song for strumming patterns) 
e|-0---------------------------------|-0---------------0-----------------| 
B|-0---------------0-----------------|-3---------------1-----------------| 
G|-0---------------0-----------------|-0---------------0-----------------| 
D|-2---------------0-----------------|-4---------------2-----------------| 
A|-2---------------2-----------------|-5---------------3-----------------| 
E|-0---------------3-----------------|-----------------------------------| 

  Lead 
e|-----------------------------------| 
B|-----------------------------------| 
G|-----0-----0---------7-----7-------| 
D|---2-----2---------5-----5---5---5-| 
A|-3-----3-----3---7-----7-------7---| 
E|-----------------------------------| 
  Rhythm 
e|-0---------------------------------| 
B|-0---------------0-----------------| 
G|-0---------------0-----------------| 
D|-2---------------0-----------------| 
A|-2---------------2-----------------| 
E|-0---------------3-----------------| 
  Layered Guitar 
e|---------------------------------------------| 
B|---------------------------------------------| 
G|-11b12r11------------------------------------| 
D|----------12-9---9b10r9---------------9-12-9-| 
A|------------------------12-10---10-12--------| 
E|---------------------------------------------| 

VERSE same as INTRO 

Chorus 
  Lead 
e|----------------------------------|-------------------------------------| 
B|-----0-----0--------7-----7-------|------8------8---------7-----7-------| 
G|---5-----5------------7-----7---7-|----9------9-------------7-----7---7-| 
D|-7-----7-----7---9------9-----9---|-10-----10-----10---9------9-----9---| 
A|----------------------------------|-------------------------------------| 
E|----------------------------------|-------------------------------------| 

e|----------------------------------|---------------------------------------| 
B|-----0-----0--------7-----7-------|------8------8------8---8-8---10-10-10-| 
G|---5-----5------------7-----7---7-|----9------9--------9---9-9---11-11-11-| 
D|-7-----7-----7---9------9-----9---|-10-----10-----10---10--1010--12-12-12-| 
A|----------------------------------|---------------------------------------| 
E|----------------------------------|---------------------------------------| 
  Rhythm (listen to song for strumming patterns) 
e|-0---------------3----------------|-0------------------3----------------| 
B|-1---------------4----------------|-1------------------4----------------| 
G|-2---------------5----------------|-0------------------5----------------| 
D|-2---------------5----------------|-2------------------5----------------| 
A|-0--------------------------------|-3-----------------------------------| 
E|----------------------------------|-------------------------------------| 

e|-0---------------3----------------|-0------------------3--33-----555----| 
B|-1---------------4----------------|-1------------------5--55-----777----| 
G|-2---------------5----------------|-0------------------5--55-----777----| 
D|-2---------------5----------------|-2-----------------------------------| 
A|-0--------------------------------|-3-----------------------------------| 
E|----------------------------------|-------------------------------------| 

Repeat INTRO x1 
Repeat VERSE x2 
Repeat Chorus 

BRIDGE 
  Lead 
e|----------------------------|---------------------------------| 
B|-5------------7--7----------|-8-----------8/10-10-------------| 
G|----7-7-----7-----7-7-----7-|----7-7--------------11-11-------| 
D|--------7-7-----------7h9---|--------9-9----------------9-9-9-| 
A|----------------------------|---------------------------------| 
E|----------------------------|---------------------------------| x4 
  Rhythm 
e|------------------------------------------------| 
B|-12-12------------------------------------------| 
G|-------12-12-------12-12/14--14-12-12-11-11-9-9-| 
D|-------------12-12------------------------------| 
A|------------------------------------------------| 
E|------------------------------------------------| x8 

SOLO 
e|--------------------------------------|-----------------------------------| 
B|--------------------------------------|-----------------------------------| 
G|-14~~------------12---11--------------|---------------14-16-/19--16-14-16-| 
D|------12-14---10---------10-9---12----|-14-16/17-16-----------------------| 
A|-----------------------------------12-|-----------------------------------| 
E|--------------------------------------|-----------------------------------| 

e|---------------------------------------| 
B|-------------12------------------------| 
G|-------12-14------------------7---7/14-| 
D|-12-14----------14-12---9-7------------| 
A|---------------------------------------| 
E|---------------------------------------| 

OUTRO           x3 
e|----------------------------------|----------------------------------| 
B|----------------------------------|----------------------------------| 
G|-----4--------4-------------------|-----4------4---------------------| 
D|-5-5---5--7-7---7-----------------|-5-5---5--7---7-------------------| 
A|-------------------5-5-5-7--7-5-7-|----------------5--5-5-5-7--7-5-7-| 
E|----------------------------------|----------------------------------| 
                  x3 
e|----------------------------------|----------------------------------| 
B|----------------------------------|----------------------------------| 
G|-----4--------4-------------------|-----4------4---------------------| 
D|-5-5---5--7-7---7-----------------|-5-5---5--7---7-------------------| 
A|-------------------5-5-5-7--7-5-7-|----------------5--5-5-5-7--7-7-7-| 
E|----------------------------------|----------------------------------|  
  

top 5 | wild nothing
top rock alternativo
Outras músicas do artista letras do(a) Wild Nothing
Top cifras »Top artistas »
Petaxxon Comunicação Online
Cifras.com.br - Melhor e mais completo site de cifras e tablaturas do Brasil
Mais de 1 milhão de acordes de músicas cadastradas desde 2003
As informações contidas no nosso site são colaborações de seus usuários e podem conter erros, sendo assim, não nos responsabilizamos sobre nenhuma destas.
close
menos
mais
close
Cor dos acordes:

Cor da letra:

 

save
close
close
 
redimensionar