Cifras e Tablaturas
Wolf Alice

Wolf Alice

Sadboy

Cifras Cancelar Versão de Impressão
cifras

Wolf Alice - Sadboy

fixar na tela  
Exibindo: vídeo-aula ver clipes redimensionar

Tom:

D

ver outros tons
  
Intro x2 
   D   D   U  D  U   D   D  U   D  D U D  D   D  
e|---------------------------------------------------------------------------| 
B|---------------------------------------------------------------------------| 
G|-10--10--10-10-10--11--11-11--8--8-8-8--10--10-----------------------------| 
D|-11--11--11-11-11--11--11-11--9--9-9-9--11--11-----------------------------| 
A|-8---8---8--8--8---9---9--9---6--6-6-6--8---8------------------------------| 
E|---------------------------------------------------------------------------| 

   D  D  U D U  D  D  U D U  D  D  U D U  D  D  U D U 
e|---------------------------------------------------------------------------| 
B|---------------------------------------------------------------------------| 
G|-3--3--3-3-3--3--3--3-3-3--5--5--5-5-5--5--5--5-5-5------------------------| 
D|-3--3--3-3-3--3--3--3-3-3--5--5--5-5-5--5--5--5-5-5------------------------| 
A|-1--1--1-1-1--1--1--1-1-1--3--3--3-3-3--3--3--3-3-3------------------------| 
E|---------------------------------------------------------------------------| 

Verse 
Who hurt you sadboy? 
e|---------------------------------------------------------------------------| 
B|---------------------------------------------------------------------------| 
G|-10--10--10-10-10--11--11-11--8--8-8-8--10--10-----------------------------| 
D|-11--11--11-11-11--11--11-11--9--9-9-9--11--11-----------------------------| 
A|-8---8---8--8--8---9---9--9---6--6-6-6--8---8------------------------------| 
E|---------------------------------------------------------------------------| 

There's a dark cloud above your head 
e|---------------------------------------------------------------------------| 
B|---------------------------------------------------------------------------| 
G|-3--3--3-3-3--3--3--3-3-3--5--5--5-5-5--5--5--5-5-5------------------------| 
D|-3--3--3-3-3--3--3--3-3-3--5--5--5-5-5--5--5--5-5-5------------------------| 
A|-1--1--1-1-1--1--1--1-1-1--3--3--3-3-3--3--3--3-3-3------------------------| 
E|---------------------------------------------------------------------------| 

Who hurt you sadboy? 
e|---------------------------------------------------------------------------| 
B|---------------------------------------------------------------------------| 
G|-10--10--10-10-10--11--11-11--8--8-8-8--10--10-----------------------------| 
D|-11--11--11-11-11--11--11-11--9--9-9-9--11--11-----------------------------| 
A|-8---8---8--8--8---9---9--9---6--6-6-6--8---8------------------------------| 
E|---------------------------------------------------------------------------| 

You act like you're already dead 
e|---------------------------------------------------------------------------| 
B|---------------------------------------------------------------------------| 
G|-3--3--3-3-3--3--3--3-3-3--5--5--5-5-5--5--5--5-5-5------------------------| 
D|-3--3--3-3-3--3--3--3-3-3--5--5--5-5-5--5--5--5-5-5------------------------| 
A|-1--1--1-1-1--1--1--1-1-1--3--3--3-3-3--3--3--3-3-3------------------------| 
E|---------------------------------------------------------------------------| 

Chorus 
But you think too much... 
  D   D  U D U  D  D U   
e|---------------------------------------------------------------------------| 
B|---------------------------------------------------------------------------| 
G|-5--5--5-5-5--5--5-5-------------------------------------------------------| 
D|-5--5--5-5-5--5--5-5-------------------------------------------------------| 
A|-3--3--3-3-3--3--3-3-------------------------------------------------------| 
E|---------------------------------------------------------------------------| 

Ohh... 
e|---------------------------------------------------------------------------| 
B|---------------------------------------------------------------------------| 
G|--3--3--3-3-3--2--2-2--3--3-3--5--5--5-5-5--5--5--5-5-5--------------------| 
D|--3--3--3-3-3--3--3-3--3--3-3--5--5--5-5-5--5--5--5-5-5--------------------| 
A|--1--1--1-1-1--0--0-0--1--1-1--3--3--3-3-3--3--3--3-3-3--------------------| 
E|---------------------------------------------------------------------------| 

Yeah you think too much... 
  D   D  U D U  D  D U   
e|---------------------------------------------------------------------------| 
B|---------------------------------------------------------------------------| 
G|-5--5--5-5-5--5--5-5-------------------------------------------------------| 
D|-5--5--5-5-5--5--5-5-------------------------------------------------------| 
A|-3--3--3-3-3--3--3-3-------------------------------------------------------| 
E|---------------------------------------------------------------------------| 

Ohh... 
e|---------------------------------------------------------------------------| 
B|---------------------------------------------------------------------------| 
G|-3--3--3-3-3--2--2-2--3--3-3-----------------------------------------------| 
D|-3--3--3-3-3--3--3-3--3--3-3-----------------------------------------------| 
A|-1--1--1-1-1--0--0-0--1--1-1-----------------------------------------------| 
E|---------------------------------------------------------------------------| 

   D  D  U D U  D  D  U D U  D D   U D U  D  D  U D U 
e|---------------------------------------------------------------------------| 
B|---------------------------------------------------------------------------| 
G|-5--5--5-5-5--5--5--5-5-5--5--5--5-5-5--5--5--5-5-5------------------------| 
D|-5--5--5-5-5--5--5--5-5-5--5--5--5-5-5--5--5--5-5-5------------------------| 
A|-3--3--3-3-3--3--3--3-3-3--3--3--3-3-3--3--3--3-3-3------------------------| 
E|---------------------------------------------------------------------------| 

e|---------------------------------------------------------------------------| 
B|---------------------------------------------------------------------------| 
G|-10--10--10-10-10--11--11-11--8--8-8-8--10--10-----------------------------| 
D|-11--11--11-11-11--11--11-11--9--9-9-9--11--11-----------------------------| 
A|-8---8---8--8--8---9---9--9---6--6-6-6--8---8------------------------------| 
E|---------------------------------------------------------------------------| 

e|---------------------------------------------------------------------------| 
B|---------------------------------------------------------------------------| 
G|-3--3--3-3-3--3--3--3-3-3--5--5--5-5-5--5--5--5-5-5------------------------| 
D|-3--3--3-3-3--3--3--3-3-3--5--5--5-5-5--5--5--5-5-5------------------------| 
A|-1--1--1-1-1--1--1--1-1-1--3--3--3-3-3--3--3--3-3-3------------------------| 
E|---------------------------------------------------------------------------| 

e|---------------------------------------------------------------------------| 
B|---------------------------------------------------------------------------| 
G|-10--10--10-10-10--11--11-11--8--8-8-8--10--10-----------------------------| 
D|-11--11--11-11-11--11--11-11--9--9-9-9--11--11-----------------------------| 
A|-8---8---8--8--8---9---9--9---6--6-6-6--8---8------------------------------| 
E|---------------------------------------------------------------------------| 

e|---------------------------------------------------------------------------| 
B|---------------------------------------------------------------------------| 
G|-3--3--3-3-3--3--3--3-3-3--5--5--5-5-5--5--5--5-5-5------------------------| 
D|-3--3--3-3-3--3--3--3-3-3--5--5--5-5-5--5--5--5-5-5------------------------| 
A|-1--1--1-1-1--1--1--1-1-1--3--3--3-3-3--3--3--3-3-3------------------------| 
E|---------------------------------------------------------------------------| 

Verse 
Who hurt you fashion boy? 
e|---------------------------------------------------------------------------| 
B|---------------------------------------------------------------------------| 
G|-10--10--10-10-10--11--11-11--8--8-8-8--10--10-----------------------------| 
D|-11--11--11-11-11--11--11-11--9--9-9-9--11--11-----------------------------| 
A|-8---8---8--8--8---9---9--9---6--6-6-6--8---8------------------------------| 
E|---------------------------------------------------------------------------| 

There's a dark cloud above your head 
e|---------------------------------------------------------------------------| 
B|---------------------------------------------------------------------------| 
G|-3--3--3-3-3--3--3--3-3-3--5--5--5-5-5--5--5--5-5-5------------------------| 
D|-3--3--3-3-3--3--3--3-3-3--5--5--5-5-5--5--5--5-5-5------------------------| 
A|-1--1--1-1-1--1--1--1-1-1--3--3--3-3-3--3--3--3-3-3------------------------| 
E|---------------------------------------------------------------------------| 

Who hurt you sadboy? 
e|---------------------------------------------------------------------------| 
B|---------------------------------------------------------------------------| 
G|-10--10--10-10-10--11--11-11--8--8-8-8--10--10-----------------------------| 
D|-11--11--11-11-11--11--11-11--9--9-9-9--11--11-----------------------------| 
A|-8---8---8--8--8---9---9--9---6--6-6-6--8---8------------------------------| 
E|---------------------------------------------------------------------------| 

You act like you're already dead 
e|---------------------------------------------------------------------------| 
B|---------------------------------------------------------------------------| 
G|-3--3--3-3-3--3--3--3-3-3--5--5--5-5-5--5--5--5-5-5------------------------| 
D|-3--3--3-3-3--3--3--3-3-3--5--5--5-5-5--5--5--5-5-5------------------------| 
A|-1--1--1-1-1--1--1--1-1-1--3--3--3-3-3--3--3--3-3-3------------------------| 
E|---------------------------------------------------------------------------| 

Chorus 
But you think too much... 
  D   D  U D U  D  D U   
e|---------------------------------------------------------------------------| 
B|---------------------------------------------------------------------------| 
G|-5--5--5-5-5--5--5-5-------------------------------------------------------| 
D|-5--5--5-5-5--5--5-5-------------------------------------------------------| 
A|-3--3--3-3-3--3--3-3-------------------------------------------------------| 
E|---------------------------------------------------------------------------| 

Ohh... 
e|---------------------------------------------------------------------------| 
B|---------------------------------------------------------------------------| 
G|--3--3--3-3-3--2--2-2--3--3-3--5--5--5-5-5--5--5--5-5-5--------------------| 
D|--3--3--3-3-3--3--3-3--3--3-3--5--5--5-5-5--5--5--5-5-5--------------------| 
A|--1--1--1-1-1--0--0-0--1--1-1--3--3--3-3-3--3--3--3-3-3--------------------| 
E|---------------------------------------------------------------------------| 

Probably drink too much... 
  D   D  U D U  D  D U   
e|---------------------------------------------------------------------------| 
B|---------------------------------------------------------------------------| 
G|-5--5--5-5-5--5--5-5-------------------------------------------------------| 
D|-5--5--5-5-5--5--5-5-------------------------------------------------------| 
A|-3--3--3-3-3--3--3-3-------------------------------------------------------| 
E|---------------------------------------------------------------------------| 

Ohh... 
e|---------------------------------------------------------------------------| 
B|---------------------------------------------------------------------------| 
G|--3--3--3-3-3--2--2-2--3--3-3--5--5--5-5-5--5--5--5-5-5--------------------| 
D|--3--3--3-3-3--3--3-3--3--3-3--5--5--5-5-5--5--5--5-5-5--------------------| 
A|--1--1--1-1-1--0--0-0--1--1-1--3--3--3-3-3--3--3--3-3-3--------------------| 
E|---------------------------------------------------------------------------| 

Ohh... 
e|---------------------------------------------------------------------------| 
B|---------------------------------------------------------------------------| 
G|--3--3--3-3-3--2--2-2--3--3-3--5--5--5-5-5--5--5--5-5-5--------------------| 
D|--3--3--3-3-3--3--3-3--3--3-3--5--5--5-5-5--5--5--5-5-5--------------------| 
A|--1--1--1-1-1--0--0-0--1--1-1--3--3--3-3-3--3--3--3-3-3--------------------| 
E|---------------------------------------------------------------------------| 

Ohh... 
e|---------------------------------------------------------------------------| 
B|---------------------------------------------------------------------------| 
G|--3--3--3-3-3--2--2-2--3--3-3--5--5--5-5-5--5--5--5-5-5--------------------| 
D|--3--3--3-3-3--3--3-3--3--3-3--5--5--5-5-5--5--5--5-5-5--------------------| 
A|--1--1--1-1-1--0--0-0--1--1-1--3--3--3-3-3--3--3--3-3-3--------------------| 
E|---------------------------------------------------------------------------| 

Bridge 
e|---------------------------------------------------------------------------| 
B|---------------------------------------------------------------------------| 
G|---------3---2-3---------3-----2----------3---2-3---------3-----2----------| 
D|-----5---5---5-5-----5---5-----5------5---5---5-5-----5---5-----5----------| 
A|-3-3-3-3-3-3-3-3-3-3-3-3-3-3-3-3--3-3-3-3-3-3-3-3-3-3-3-3-3-3-3-3----------| 
E|---------------------------------------------------------------------------| 

e|---------------------------------------------------------------------------| 
B|---------------------------------------------------------------------------| 
G|-----2---3---2-3-----2---3-----2----------3---2-3---------3-----2----------| 
D|-3-3-3-3-3-3-3-3-3-3-3-3-3-3-3-3------5---5---5-5-----5---5-----5----------| 
A|----------------------------------3-3-3-3-3-3-3-3-3-3-3-3-3-3-3-3----------| 
E|---------------------------------------------------------------------------| 


Outro 

Ohh.. 
e|---------------------------------------------------------------------------| 
B|---------------------------------------------------------------------------| 
G|-5-------------------------------------------------------------------------| 
D|-5-------------------------------------------------------------------------| 
A|-3-------------------------------------------------------------------------| 
E|---------------------------------------------------------------------------| 
  

top 5 | wolf alice
top rock'n roll
Outras músicas do artista letras do(a) Wolf Alice
1.
Silk
Top cifras »Top artistas »
Petaxxon Comunicação Online
Cifras.com.br - Melhor e mais completo site de cifras e tablaturas do Brasil
Mais de 1 milhão de acordes de músicas cadastradas desde 2003
As informações contidas no nosso site são colaborações de seus usuários e podem conter erros, sendo assim, não nos responsabilizamos sobre nenhuma destas.
close
menos
mais
close
Cor dos acordes:

Cor da letra:

 

save
close
close
 
redimensionar