Cifras e Tablaturas
Xavier Rudd

Xavier Rudd

Conceal Me

Cifras Cancelar Versão de Impressão Print

Xavier Rudd - Conceal Me

Tom:

  • 0:00 / 0:00
  			Words and Music by Xavier Rudd  
Transcribed by Troy Wilson, Blue Note College of Music and Performance  
1st Floor, 13 Wells St, Frankston, Vic 3199. Telephone: 9781 4467. 
 
Lapslide Tuning - DADGAD  
 
 
Intro & Verse  
 
|----------------------------|-------------------------|  
|----------------------------|-------------------------|  
|---------------------10s11--|-------------------------|  
|---0-10s12--10-10-----------|-12------0-10-10-10-0----|  
|-----10s12--10----10--------|-----12\---10---------12-|  
|-0--------------------------|-------------------------|  
 
 
|-------------------------|----------------------|  
|-------------------------|----------------------|  
|------------------10s11--|----------------------|  
|----/12--10-10-----------|-12-----0-3-3-3s5S3---|  
|----/12--10----10--------|-----12---------------|  
|-0-----------------------|----------3---3s5S3---|  
 
 
|--------------------------|-------------------------|  
|--------------------------|-------------------------|  
|-------------------10s11--|-------------------------|  
|---0-/12--10-10-----------|-12------0-10-10-10-0----|  
|-----/12--10----10--------|-----12\---10---------12-|  
|-0------------------------|-------------------------|  
 
 
|-----------------------|-----------------------|  
|-----------------------|-----------------------|  
|------------------7s10s|=11s12-----------------|  
|----/12--10-10---------|-------12-0-3-3-3s5S3--|  
|----/12--10----10------|-------12--------------|  
|-0-------------------0-|------------3---3s5S3--|  
 
 
|--------------------------|--------------------------|  
|--------------------------|--------------------------|  
|-------------------10s11--|--------------------------|  
|---0-/12--10-10-----------|-12-----0-/15-15-15s17S15-|  
|-----/12--10----10--------|-----12-------------------|  
|-0------------------------|-----------------15s17S15-|  
 
 
|--------------------------|--------------------|  
|--------------------------|--------------------|  
|-------------------10s11--|--------------------|  
|-/12--12--10-10-----------|-12-----0-3-3-3s5S3-|  
|-/12------------10--------|-----12-------------|  
|--------------------------|----------3---3s5S3-|  
 
 
|--------------------------|-------------------------|  
|--------------------------|-------------------------|  
|-------------------10s11--|-------------------------|  
|---0-/12--10-10-----------|-12------0-10-10-10-0----|  
|-----/12--10----10--------|-----12\---10---------12-|  
|-0------------------------|-------------------------|  
 
 
|-------------------------|-----------------|-----------------------||  
|-------------------------|-----------------|-----------------------||  
|------------------10s11--|-----------------|-----------------------||  
|----/12--10-10-----------|-12-----0-3s5----|-(5)s=(3)--3--3s5S3----||  
|----/12--10----10--------|-----12----------|-----------------------||  
|-0-----------------------|-----------------|-----------3--3s5S3----||  
 
 
Chorus  
|--------------------------|--------------------------|  
|--------------------------|--------------------------|  
|-------------------10s11--|--------------------------|  
|---0-/12--10-10-----------|-12-----0-/15-15-15s17S15-|  
|-----/12--10----10--------|-----12-------------------|  
|-0------------------------|-----------------15s17S15-|  
 
 
|-------------------------|------------------|  
|-------------------------|------------------|  
|------------------10s11--|------------------|  
|-12------10-10-----------|-12------3--3s5-3-|  
|-----12--10----10--------|-----12--3--3-5-3-|  
|-------------------------|---------3--3s5-3-|  
 
 
|--------------------------|--------------------------|  
|--------------------------|--------------------------|  
|-------------------10s11--|--------------------------|  
|---0-/12--10-10-----------|-12-----0-/15-15-15s17S15-|  
|-----/12--10----10--------|-----12-------------------|  
|-0------------------------|-----------------15s17S15-|  
 
 
|-------------------------|------------------|  
|-------------------------|------------------|  
|------------------10s11--|------------------|  
|-12------10-10-----------|-12------3--3s5-3-|  
|-----12--10----10--------|-----12--3--3-5-3-|  
|-------------------------|---------3--3s5-3-|  
 
 
|--------------------------|--------------------------|  
|--------------------------|--------------------------|  
|-------------------10s11--|--------------------------|  
|---0-/12--10-10-----------|-12-----0-/15-15-15s17S15-|  
|-----/12--10----10--------|-----12-------------------|  
|-0------------------------|-----------------15s17S15-|  
 
 
|-------------------------|------------------|  
|-------------------------|------------------|  
|------------------10s11--|------------------|  
|-12------10-10-----------|-12------3--3s5-3-|  
|-----12--10----10--------|-----12--3--3-5-3-|  
|-------------------------|---------3--3s5-3-|  
 
 
|--------------------------|--------------------------|  
|--------------------------|--------------------------|  
|-------------------10s11--|--------------------------|  
|---0-/12--10-10-----------|-12-----0-/15-15-15s17S15-|  
|-----/12--10----10--------|-----12-------------------|  
|-0------------------------|-----------------15s17S15-|  
 
 
|------------------------|-------------------------|--------||  
|------------------------|-------------------------|--------||  
|------------------------|-------------------------|--------||  
|-12-----0-/10-10-10\--0-|-/7-7---0-/5-5----5s==3--|-(3)----||  
|-----12-0-/10-10-10\--0-|-/7-7---0-/5-5----5s==3--|-(3)----||  
|------------------------|------7--------5-(5)s(3)-|-(3)----||  
 
 
Verse 2  
|--------------------------|-------------------------|  
|--------------------------|-------------------------|  
|-------------------10s11--|-------------------------|  
|---0-/12--10-10-----------|-12------0-10-10-10-0----|  
|-----/12--10----10--------|-----12\---10---------12-|  
|-0------------------------|-------------------------|  
 
 
|-------------------------|--------------------|  
|-------------------------|--------------------|  
|------------------10s11--|--------------------|  
|----/12--10-10-----------|-12-----0-3-3-3s5-3-|  
|----/12--10----10--------|-----12-------------|  
|-0-----------------------|----------3---3s5-3-|  
 
 
|--------------------------|-------------------------|  
|--------------------------|-------------------------|  
|-------------------10s11--|-------------------------|  
|---0-/12--10-10-----------|-12------0-10-10-10-0----|  
|-----/12--10----10--------|-----12\---10---------12-|  
|-0------------------------|-------------------------|  
 
 
|-----------------------|-----------------------|  
|-----------------------|-----------------------|  
|------------------7s10s|=11s12-----------------|  
|----/12--10-10---------|-------12-0-3-3-3s5S3--|  
|----/12--10----10------|-------12--------------|  
|-0-------------------0-|------------3---3s5S3--|  
 
 
|--------------------------|--------------------------|  
|--------------------------|--------------------------|  
|-------------------10s11--|--------------------------|  
|---0-/12--10-10-----------|-12-----0-/15-15-15s17S15-|  
|-----/12--10----10--------|-----12-------------------|  
|-0------------------------|-----------------15s17S15-|  
 
 
|--------------------------|--------------------|  
|--------------------------|--------------------|  
|-------------------10s11--|--------------------|  
|-/12--12--10-10-----------|-12-----0-3-3-3s5-3-|  
|-/12------------10--------|-----12-------------|  
|--------------------------|----------3---3s5-3-|  
 
 
|--------------------------|-------------------------|  
|--------------------------|-------------------------|  
|-------------------10s11--|-------------------------|  
|---0-/12--10-10-----------|-12------0-10-10-10-0----|  
|-----/12--10----10--------|-----12\---10---------12-|  
|-0------------------------|-------------------------|  
 
 
|-------------------------|-----------------|-----------------------||  
|-------------------------|-----------------|-----------------------||  
|------------------10s11--|-----------------|-----------------------||  
|----/12--10-10-----------|-12-----0-3s5----|-(5)s=(3)--3--3s5S3----||  
|----/12--10----10--------|-----12----------|-----------------------||  
|-0-----------------------|-----------------|-----------3--3s5S3----||  
 
 
Chorus 2  
|--------------------------|--------------------------|  
|--------------------------|--------------------------|  
|-------------------10s11--|--------------------------|  
|---0-/12--10-10-----------|-12-----0-/15-15-15s17S15-|  
|-----/12--10----10--------|-----12-------------------|  
|-0------------------------|-----------------15s17S15-|  
 
 
|-------------------------|------------------|  
|-------------------------|------------------|  
|------------------10s11--|------------------|  
|-12------10-10-----------|-12------3--3s5-3-|  
|-----12--10----10--------|-----12--3--3-5-3-|  
|-------------------------|---------3--3s5-3-|  
 
 
|--------------------------|--------------------------|  
|--------------------------|--------------------------|  
|-------------------10s11--|--------------------------|  
|---0-/12--10-10-----------|-12-----0-/15-15-15s17S15-|  
|-----/12--10----10--------|-----12-------------------|  
|-0------------------------|-----------------15s17S15-|  
 
 
|-------------------------|------------------|  
|-------------------------|------------------|  
|------------------10s11--|------------------|  
|-12------10-10-----------|-12------3--3s5-3-|  
|-----12--10----10--------|-----12--3--3-5-3-|  
|-------------------------|---------3--3s5-3-|  
 
 
|--------------------------|--------------------------|  
|--------------------------|--------------------------|  
|-------------------10s11--|--------------------------|  
|---0-/12--10-10-----------|-12-----0-/15-15-15s17S15-|  
|-----/12--10----10--------|-----12-------------------|  
|-0------------------------|-----------------15s17S15-|  
 
 
|-------------------------|------------------|  
|-------------------------|------------------|  
|------------------10s11--|------------------|  
|-12------10-10-----------|-12------3--3s5-3-|  
|-----12--10----10--------|-----12--3--3-5-3-|  
|-------------------------|---------3--3s5-3-|  
 
 
|--------------------------|--------------------------|  
|--------------------------|--------------------------|  
|-------------------10s11--|--------------------------|  
|---0-/12--10-10-----------|-12-----0-/15-15-15s17S15-|  
|-----/12--10----10--------|-----12-------------------|  
|-0------------------------|-----------------15s17S15-|  
 
 
|------------------------|-------------------------|--------||  
|------------------------|-------------------------|--------||  
|------------------------|-------------------------|--------||  
|-12-----0-/10-10-10\--0-|-/7-7---0-/5-5----5s==3--|-(3)----||  
|-----12-0-/10-10-10\--0-|-/7-7---0-/5-5----5s==3--|-(3)----||  
|------------------------|------7--------5-(5)s(3)-|-(3)----||  
 
 
Interlude & Didgeridoo 
|------------|------------|-------------|-------------|---------|  
|------------|------------|-------------|-------------|---------|  
|------------|------------|-------------|-------------|---------|  
|-(5)s=======|=(7)s=======|=(10)s=======|=(12)--------|-(12)----|  
|-(5)s=======|=(7)s=======|=(10)s=======|=(12)--------|-(12)----|  
|-(5)s=======|=(7)s=======|=(10)s=======|=(12)--------|-(12)----|  
 
 
|--------------------------|-------------------|  
|--------------------------|-------------------|  
|--------------------------|-------------------|  
|----0--/12--/10-10-10\--0-|-/7-7-7--0-/5--5s3-|  
|-------/12--/10-10-10\--0-|-/7-7-7--0-/5--5s3-|  
|-0------------------------|-------------------|  
 
 
|---------------------------|--------------------|  
|---------------------------|--------------------|  
|---------------------------|--------------------|  
|----0--/12-0-/10-10-10\--0-|-/7-7-7--0-/5--5s3--|  
|-------/12-0-/10-10-10\--0-|-/7-7-7--0-/5--5s3--|  
|-0-------------------------|--------------------|  
 
 
|---------------------------|--------------------------|  
|---------------------------|--------------------------|  
|---------------------------|--------------------------|  
|----0--/12-0-/15-15-15\--0-|-/17-17-17---------15s17S=|  
|-------/12-0-/15-15-15\--0-|-/17-17-17--15--15--------|  
|-0-------------------------|--------------------------|  
 
 
|-----------------------|---------------------||  
|-----------------------|---------------------||  
|-----------------------|---------------------||  
|-12--12--/10-10-10\--0-|-/7-7-7--0-/5--5s3---||  
|-----12---10-10-10\--0-|-/7-7-7--0-/5--5s3---||  
|-----------------------|---------------------||  
 
 
Outro  
|--------------------------|--------------------------|  
|--------------------------|--------------------------|  
|-------------------10s11--|--------------------------|  
|---0-/12--10-10-----------|-12-----0-/15-15-15s17S15-|  
|-----/12--10----10--------|-----12-------------------|  
|-0------------------------|-----------------15s17S15-|  
 
 
|-------------------------|--------------------|  
|-------------------------|--------------------|  
|------------------10s11--|--------------------|  
|-12------10-10-----------|-12-----0-3-3-3s5-3-|  
|-----12--10----10--------|-----12-------------|  
|-------------------------|----------3---3s5-3-|  
 
 
|--------------------------|--------------------------|  
|--------------------------|--------------------------|  
|-------------------10s11--|--------------------------|  
|---0-/12--10-10-----------|-12-----0-/15-15-15s17S15-|  
|-----/12--10----10--------|-----12-------------------|  
|-0------------------------|-----------------15s17S15-|  
 
 
|-------------------------|------------------|  
|-------------------------|------------------|  
|------------------10s11--|------------------|  
|-12------10-10-----------|-12------3--3s5-3-|  
|-----12--10----10--------|-----12--3--3-5-3-|  
|-------------------------|---------3--3s5-3-|  
 
 
|--------------------------|--------------------------|  
|--------------------------|--------------------------|  
|-------------------10s11--|--------------------------|  
|---0-/12--10-10-----------|-12-----0-/15-15-15s17S15-|  
|-----/12--10----10--------|-----12-------------------|  
|-0------------------------|-----------------15s17S15-|  
 
 
|------------------------|-------------------------|--------|  
|------------------------|-------------------------|--------|  
|------------------------|-------------------------|--------|  
|-12-----0-/10-10-10\--0-|-/7-7---0-/5-5----5s==3--|-(3)----|  
|-----12-0-/10-10-10\--0-|-/7-7---0-/5-5----5s==3--|-(3)----|  
|------------------------|------7--------5-(5)s(3)-|-(3)----|  
 
 
|------------|--------------------|-------------------------|--------*|  
|------------|--------------------|-------------------------|--------*|  
|------------|--------------------|-------------------------|--------*|  
|-(3)--------|-(3)----(3)---3(15)-|-3(15)--3(15)----3(15)p0-|-(0)----*|  
|-(3)--------|-(3)----(3)---3(15)-|-3(15)--3(15)----3(15)p0-|-(0)----*|  
|-(3)--------|-(3)----(3)---3(15)-|-3(15)--3(15)----3(15)p0-|-(0)----*|  
 
 
Tablature Legend  
----------------  
h   - hammer-on  
p   - pull-off  
b   - bend  
pb  - pre-bend  
r   - bend release (if no number after the r, then release immediately)  
/\  - slide into or out of (from/to "nowhere")  
s   - legato slide  
S   - shift slide  
  - natural harmonic  
{n}  - artificial harmonic  
n(n) - tapped harmonic  
~   - vibrato  
tr  - trill  
T   - tap  
TP  - trem. picking  
PM  - palm muting  
\n/  - tremolo bar dip; n = amount to dip  
\n  - tremolo bar down  
n/  - tremolo bar up  
/n\  - tremolo bar inverted dip  
=   - hold bend; also acts as connecting device for hammers/pulls  
<>  - volume swell (louder/softer)  
x   - on rhythm slash represents muted slash  
o   - on rhythm slash represents single note slash  
 
Misc Legend  
-----------  
|  - bar  
||  - double bar  
||o - repeat start  
o|| - repeat end  
*|  - double bar (ending)  
:  - bar (freetime)  
$  - Segno  
&  - Coda  
Tempo markers -  = BPM(8/16=s8/s16), where s8 = swing 8ths, s16 = swing 16ths  
 
 

    	

enviado porenviado por: anônimo
cifra enviadaCorrigida por: sem correções
logo top cifrasComente
ico música do artistaMúsicas deste artista
ico curtiuCurtiu?
ico destaqueDestaque
Petaxxon Comunicação Online

Cifras.com.br - Melhor e mais completo site de cifras e tablaturas do Brasil Mais de 1 milhão de acordes de músicas cadastradas desde 2003
As informações contidas no nosso site são colaborações de seus usuários e podem conter erros, sendo assim, não nos responsabilizamos sobre nenhuma destas.

close
menos
mais
close
Cor dos acordes:

Cor da letra:

close
Alinhar acordes a direita Alinhar acordes a esquerda Alinhar acordes em baixo Alinhar acordes no topo
close
  Mostrar todos os acordes Esconder acordes muito fáceis Esconder acordes fáceis Esconder acordes intermediários
redimensionar
glossário